Trono Del Metal, Warcry (tablatura)

Autor: Anónimo | 21475 visualizaciones

Este es mi primer tab así que de seguro tiene errores disculpen

WarCry. Trono del Metal

intro
|-----------------------------------|
|-----------------------------------|
|-5---------------------------------|
|-3---5-----------------7----3----5-|
|-3---3-----------------7----3----5-|
|-----3—---3---1---0----5----1----3-|

|------------------------------------------|
|------------------------------------------|
|-------5--------5--------5----------------|
|-------5--------5--------5----------------|
|-3--3--3--3--3--3--3--3--3--3--3--3--2--0-|
|------------------------------------------|

|------------------------------------------|
|------------------------------------------|
|------------------------------------------|
|-------5--------5--------5----------------|
|-------5--------5--------5----------------|
|-3--3--3--3--3--3--3--3--3--3--3--3--5--7-|

|----------------------------------------------------------------|
|----------------------------------------------------------------|
|----------------------------------------------------------------|
|-------7--------7--------7-----5-----3----3----3----5----5----5-|
|-------7--------7--------7-----5-----3-—--3----3----5----5----5-|
|-5--5--5--5--5--5--5--5--5--5--3--1—-1---—1----1----3----3----3-|

|----------------------------------------------------------------|
|----------------------------------------------------------------|
|-5-------------------------------5-----------4------------------|
|-5-------------------------------5-----------4-----------2------|
|-3--3-3-3-3-3-3-3-3-3-3-3-3-3-3--3--3-3-3-3--2--2-2-2-2--0--0-0-|
|----------------------------------------------------------------|

|----------------------------------------------------------------|
|----------------------------------------------------------------|
|----------------------------------------------------------------|
|-5-------------------------------5-----------7-----------9------|
|-5-------------------------------5-----------7-----------9------|
|-3--3-3-3-3-3-3-3-3-3-3-3-3-3-3--3--3-3-3-3--5--5-5-5-5--7--7-7-|

|----------------------------------------------------------------|
|----------------------------------------------------------------|
|----------------------------------------------------------------|
|-7-------------------------------7-----------7-----------5------|
|-7-------------------------------7-----------7-----------5------|
|-5--5-5-5-5-5-5-5-5-5-5-5-5-5-5--5--5-5-5-5--5--5-5-5-5--3--3-3-|

|----------------------------------------------------------------|
|----------------------------------------------------------------|
|----------------------------------------------------------------|
|----------------------------------------------------------------|
|----------------------------------------------------------------|
|-1--1-1-1--1-1-1--1-1-1--1-1--3--3-3-3--3-3-3--3-3-3--3-3-------|

|---------------------------------------------|
|---------------------------------------------|
|---------------------------------------------|
|---------------------------------------------|
|-3-3-3---3-3-3---3--3---3-3-3---3-3-3---3--3-|
|---------------------------------------------|

|----------------------------------------------------------------|
|----------------------------------------------------------------|
|----------------------------------------------------------------|
|----------------------------------------------------------------|
|----------------------------------------------------------------|
|-3-3-3-3-3-3-3-3-3-3-3-3-3-3-3-3-3-3-3-3-3-3-3-3-3-3-3-3-3-3-3-3|

|---------------------------------------------|
|---------------------------------------------|
|---------------------------------------------|
|---------------------------------------------|
|---------------------------------------------|
|-5-5-5---5-5-5---5--5---5-5-5---5-5-5---5--5-|

|----------------------------------------------------------------|
|----------------------------------------------------------------|
|----------------------------------------------------------------|
|----------------------------------------------------------------|
|----------------------------------------------------------------|
|-1-1-1-1-1-1-1-1-1-1-1-1-1-1-1-1-3-3-3-3-3-3-3-3-3-3-3-3-3-3-3-3|

|----------------------------------------------------------------|
|----------------------------------------------------------------|
|----------------------------------------------------------------|
|----------------------------------------------------------------|
|-3-3-3-3-3-3-3-3-3-3-3-3-3-3-3-3-3-3-3-3-3-3-3-3-3-3-3-3-3-3-3-3|
|----------------------------------------------------------------|

|----------------------------------------------------------------|
|----------------------------------------------------------------|
|----------------------------------------------------------------|
|-5-----------5-----------5-------5-----------5-----------5------|
|-5-----------5-----------5-------5-----------5-----------5------|
|-3--3-3-3-3-—3--3-3-3-3—-3--3-3--3--3-3-3-3-—3--3-3-3-3—-3--3-3-|

|-----------------------------------------------------------------|
|-----------------------------------------------------------------|
|-----------------------------------------------------------------|
|-----------------------------------------------------------------|
|-----------------------------------------------------------------|
|-5-5-5-5-5-5-5-5-5-5-5-5-5-5-5-5-5-5-5-5-5-5-5-5-5-5-5-5-5-5-5-5-|

|--------------------------------------------------------------------------|
|--------------------------------------------------------------------------|
|--------------------------------------------------------------------------|
|-3----2----3-------------------------------3------------------------------|
|-3----2----3-------------------------------3------------------------------|
|-1----0----1--1-1-1-1-1-1-1-1-1-1-1-1-1-1--1--1-1-1-1-1-1-1-1-1-1-1-1-1-1-|

|--------------------------------------------------------------------------|
|--------------------------------------------------------------------------|
|--------------------------------------------------------------------------|
|-7-----------------------9-------7-----------------------5----------------|
|-7-----------------------9-------7-----------------------5----------------|
|-5--5-5-5-5-5-5-5-5-5-5--7--7-7--5--5-5-5-5-5-5-5-5-5-5--3--3-3-----------|

|---------------------------------------------------------------|
|---------------------------------------------------------------|
|---------------------------------------------------------------|
|-3-----------------------5-------3-----------------------3-----|
|-3-----------------------5-------3-----------------------3-----|
|-1--1-1-1-1-1-1-1-1—1-1--3--3-3--1--1-1-1-1-1-1-1-1-1-1--1-1-1-|

|---------------------------------------------------------------|
|---------------------------------------------------------------|
|---------------------------------------------------------------|
|-5-----------------------7-------5-----------------------3-----|
|-5-----------------------7-------5-----------------------3-----|
|-3--3-3-3-3-3-3-3-3—3-3--5--5-5--3--3-3-3-3-3-3-3-3-3-3--1-1-1-|

|---------------------------------------------------------------|
|---------------------------------------------------------------|
|---------------------------------------------------------------|
|-2-----------------------3-------2-----------------------5-----|
|-2-----------------------3-------2-----------------------5-----|
|-0--0-0-0-0-0-0-0-0—0-0--1--1-1--0--0-0-0-0-0-0-0-0-0-0--3-3-3-|

|---------------------------------------------------------------|
|---------------------------------------------------------------|
|---------------------------------------------------------------|
|-7-----------------------9-------7-----------------------5-----|
|-7-----------------------9-------7-----------------------5-----|
|-5--5-5-5-5-5-5-5-5—5-5--7--7-7--5--5-5-5-5-5-5-5-5-5-5--3-3-3-|

|---------------------------------------------------------------|
|---------------------------------------------------------------|
|---------------------------------------------------------------|
|-3-----------------------5-------3-----------------------3-----|
|-3-----------------------5-------3-----------------------3-----|
|-1--1-1-1-1-1-1-1-1—1-1--3--3-3--1--1-1-1-1-1-1-1-1-1-1--1-1-1-|

|----------------------------------------|
|----------------------------------------|
|---------------------5------------------|
|-5----5----5----5----5-------5-------5--|
|-5----5----5----5----3-------5-------5--|
|-3----3----3----3------------3-------7--|

|------------------------------------------------|
|------------------------------------------------|
|------------------------------------------------|
|------------------------------------------------|
|------------------------------------------------|
|-1--1--1--1--1--1--1--1--3--3--3--3--3--3--3--3-|

|----------------------------------------------------------------|
|----------------------------------------------------------------|
|-5-------------------------------5-----------4------------------|
|-5-------------------------------5-----------4-----------2------|
|-3--3-3-3-3-3-3-3-3-3-3-3-3-3-3--3--3-3-3-3--2--2-2-2-2--0--0-0-|
|----------------------------------------------------------------|

|----------------------------------------------------------------|
|----------------------------------------------------------------|
|----------------------------------------------------------------|
|-5-------------------------------5-----------7-----------9------|
|-5-------------------------------5-----------7-----------9------|
|-3--3-3-3-3-3-3-3-3-3-3-3-3-3-3--3--3-3-3-3--5--5-5-5-5--7--7-7-|

|----------------------------------------------------------------|
|----------------------------------------------------------------|
|----------------------------------------------------------------|
|-7-------------------------------7-----------7-----------5------|
|-7-------------------------------7-----------7-----------5------|
|-5--5-5-5-5-5-5-5-5-5-5-5-5-5-5--5--5-5-5-5--5--5-5-5-5--3--3-3-|

|--------------------------------------------------|
|--------------------------------------------------|
|-----------------------------------5-----5-----4--|
|-3-----3-----3-----3-----3---5-----5-----5-----4--|
|-3-----3-----3-----3-----3---5-----3-----3-----2--|
|-1-----1-----1-----1-----1---3--------------------|

solo

|-------------------------------|
|-------------------------------|
|--9-------9---12----10p9-------|
|-----10------------------12----|
|-------------------------------|
|-------------------------------|

|------------------------------------------------------------------------------|
|------------10--12—--12b14r12---10-----10-------------------------------------|
|-9--10--12-------------------------12-----12---10--9--------------------------|
|-------------------------------------------------------12—-10-—------------10-|
|----------------------------------------------------------------12--12--12----|
|------------------------------------------------------------------------------|

|--------------------------------------------|
|--------------------------------------------|
|---------------9-------9---12----10p9-------|
|------9-----------10------------------12----|
|-12-----12----------------------------------|
|--------------------------------------------|

|------------------------------------------------------------------------------|
|------------10--12—--13-13-13-13-12-12-12-12-10-10-10-10-12-12-12-12-13-13-13-|
|-9--10--12--------------------------------------------------------------------|
|------------------------------------------------------------------------------|
|------------------------------------------------------------------------------|
|------------------------------------------------------------------------------|

|-------------------------------------------------------------------------|
|-12-12-12-12-10-10-10-10-12-12-12-12-15-15-15-15-13-13-13-13-12-12-12-12-|
|-------------------------------------------------------------------------|
|-------------------------------------------------------------------------|
|-------------------------------------------------------------------------|
|-------------------------------------------------------------------------|

|-------------------------------------------------------------|
|-10-10-10-10-15-15-15-15-13-13-13-13-12-12-12-12-10-10-10-10-|
|-------------------------------------------------------------|
|-------------------------------------------------------------|
|-------------------------------------------------------------|
|-------------------------------------------------------------|






|-------------------------------------------------------------|
|-10p8h6-10p8h6-10p8h6-10p8h6-12p10h8-12p10h8-12p10h8-12p10h8-|
|-------------------------------------------------------------|
|-------------------------------------------------------------|
|-------------------------------------------------------------|
|-------------------------------------------------------------|

|-----------------------------------------------------------------|
|-13p10h8-13p10h8-13p10h8-13p10h8-13p10h8-13p10h8-13p10h8-13p10h8-|
|-----------------------------------------------------------------|
|-----------------------------------------------------------------|
|-----------------------------------------------------------------|
|-----------------------------------------------------------------|

|-------------------------------------------------------------|
|-10p8h6-10p8h6-10p8h6-10p8h6-12p10h8-12p10h8-12p10h8-12p10h8-|
|-------------------------------------------------------------|
|-------------------------------------------------------------|
|-------------------------------------------------------------|
|-------------------------------------------------------------|

|-----------------------------------------------------------------|
|-13p10h8-13p10h8-13p10h8-13p10h8-13p10h8-13p10h8-13p10h8-13p10h8-|
|-----------------------------------------------------------------|
|-----------------------------------------------------------------|
|-----------------------------------------------------------------|
|-----------------------------------------------------------------|

|--------------------------------------------------------------|
|--------------------------------------------------------------|
|------------------/12---10------------------------------------|
|-10---10/12---9-------------12--9-------/12--9----------------|
|------------------------------------10----------10------------|
|----------------------------------------------------13--12—10-|

|--------------------------------------------------------|
|--------------------------------------------------------|
|--------------------------------------------------------|
|--------------------------------------------------------|
|-----------/10---------------------------------------10-|
|-8--10--8-------13-12--13-12-8---8-10-12—10-10-12-13----|

|----------------------------------------------|
|----------------------------------------------|
|----------------------------------------------|
|-10-9-----------------9-10-9----------------9-|
|-------12-10-9-10-12----------12-10-9-10-12---|
|----------------------------------------------|

|------------------------------------------------|
|------------------------------------------------|
|------------------------------------------------|
|-12-10-9------------9-10-12-10-9-----------9-10-|
|----------12-10-12----------------12-10-12------|
|------------------------------------------------|

Repetir 2 veces
|------------------------------------------------|
|------------------------------------------------|
|-9--------------------9-------------------------|
|---12-10-9----12-10-9---12-10-9----12-10-9------|
|-----------12-------------------12--------------|
|------------------------------------------------|
Repetir 3 veces
|------------------------|
|------------------------|
|-10-9-----------------9-|
|-------12-10-9-10-12----|
|------------------------|
|------------------------|

|------------------------|
|------------------10----|
|-10-9------9--10-----12-|
|-------12---------------|
|------------------------|
|------------------------|

|---------------------|
|---------------------|
|--5------------------|
|--5-------5-------5--|
|--3-------5-------5--|
|----------3-------7--|

|------------------------------------------------|
|------------------------------------------------|
|------------------------------------------------|
|------------------------------------------------|
|------------------------------------------------|
|-1--1--1--1--1--1--1--1--3--3--3--3--3--3--3--3-|

|----------------------------------------------------------------|
|----------------------------------------------------------------|
|-5-------------------------------5-----------4------------------|
|-5-------------------------------5-----------4-----------2------|
|-3--3-3-3-3-3-3-3-3-3-3-3-3-3-3--3--3-3-3-3--2--2-2-2-2--0--0-0-|
|----------------------------------------------------------------|

|----------------------------------------------------------------|
|----------------------------------------------------------------|
|----------------------------------------------------------------|
|-5-------------------------------5-----------7-----------9------|
|-5-------------------------------5-----------7-----------9------|
|-3--3-3-3-3-3-3-3-3-3-3-3-3-3-3--3--3-3-3-3--5--5-5-5-5--7--7-7-|

|----------------------------------------------------------------|
|----------------------------------------------------------------|
|----------------------------------------------------------------|
|-7-------------------------------7-----------7-----------5------|
|-7-------------------------------7-----------7-----------5------|
|-5--5-5-5-5-5-5-5-5-5-5-5-5-5-5--5--5-5-5-5--5--5-5-5-5--3--3-3-|

|--------------------------------|
|--------------------------------|
|--------------------------------|
|-3-----3-----3-----3-----3---5--|
|-3-----3-----3-----3-----3---5--|
|-1-----1-----1-----1-----1---3--|

|----------------------------------------------------------------|
|----------------------------------------------------------------|
|-5-------------------------------5-----------4------------------|
|-5-------------------------------5-----------4-----------2------|
|-3--3-3-3-3-3-3-3-3-3-3-3-3-3-3--3--3-3-3-3--2--2-2-2-2--0--0-0-|
|----------------------------------------------------------------|

|----------------------------------------------------------------|
|----------------------------------------------------------------|
|----------------------------------------------------------------|
|-5-------------------------------5-----------7-----------9------|
|-5-------------------------------5-----------7-----------9------|
|-3--3-3-3-3-3-3-3-3-3-3-3-3-3-3--3--3-3-3-3--5--5-5-5-5--7--7-7-|

|----------------------------------------------------------------|
|----------------------------------------------------------------|
|----------------------------------------------------------------|
|-7-------------------------------7-----------7-----------5------|
|-7-------------------------------7-----------7-----------5------|
|-5--5-5-5-5-5-5-5-5-5-5-5-5-5-5--5--5-5-5-5--5--5-5-5-5--3--3-3-|

|----------------------------------------------------------------|
|----------------------------------------------------------------|
|----------------------------------------------------------------|
|----------------------------------------------------------------|
|----------------------------------------------------------------|
|-1--1-1-1--1-1-1--1-1-1--1-1--3--3-3-3--3-3-3--3-3-3--3-3-------|

|----------------------------------------------------------------|
|----------------------------------------------------------------|
|-5-------------------------------5-----------4------------------|
|-5-------------------------------5-----------4-----------2------|
|-3--3-3-3-3-3-3-3-3-3-3-3-3-3-3--3--3-3-3-3--2--2-2-2-2--0--0-0-|
|----------------------------------------------------------------|

|----------------------------------------------------------------|
|----------------------------------------------------------------|
|----------------------------------------------------------------|
|-5-------------------------------5-----------7-----------9------|
|-5-------------------------------5-----------7-----------9------|
|-3--3-3-3-3-3-3-3-3-3-3-3-3-3-3--3--3-3-3-3--5--5-5-5-5--7--7-7-|

|----------------------------------------------------------------|
|----------------------------------------------------------------|
|----------------------------------------------------------------|
|-7-------------------------------7-----------7-----------5------|
|-7-------------------------------7-----------7-----------5------|
|-5--5-5-5-5-5-5-5-5-5-5-5-5-5-5--5--5-5-5-5--5--5-5-5-5--3--3-3-|

|----------------------------------------|
|----------------------------------------|
|----------------------------------5---5-|
|-3-----3-----3-----3-----3---5—---5—--5-|
|-3-----3-----3-----3-----3---5—---3---3-|
|-1-----1-----1-----1-----1---3----------|
Repetir varias veces
|----------------------------------------------------------------|
|----------------------------------------------------------------|
|-5-----------5-----------5-------5-----------5-----------5------|
|-5-----------5-----------5-------5-----------5-----------5------|
|-3--3-3-3-3-—3--3-3-3-3—-3--3-3--3--3-3-3-3-—3--3-3-3-3—-3--3-3-|
|----------------------------------------------------------------|

|---------------|
|---------------|
|---------5---5-|
|-3---5---5---5-|
|-3---5---3---3-|
|-1---3---------|

Le dedico esta cancion a mis amigos

y Arriba Sabinas!!!
Calificar esta versión:
Aviso: Este fichero es trabajo propio de su transcriptor y representa su interpretación personal de la canción. El material contenido en esta página es para exclusivo uso privado, por lo que se prohibe su reproducción o retransmisión, así como su uso para fines comerciales.
Más versiones de Trono Del Metal, Warcry
Trono Del Metal
acordes
Trono Del Metal
tablatura
Trono Del Metal (ver 2)
tablatura
Descubre más canciones de Warcry