Espíritu De Amor, Warcry (tablatura)

Autor: Gra_531 | 14659 visualizaciones

Intro.-

e|-------------------------|--------------------|--------------------
B|--(4)-----4--6--7--6--2--|-----4--6--7--6--4--|-----4--6--7--6--2--
G|º------3-----------------|--4-------?---------|--3-----------------
D|º------------------------|--------------------|--------------------
A|-------------------------|--------------------|--------------------
E|-------------------------|--------------------|--------------------

e|---------------------|     Nota: ()se toca solo la primera vez
B|-----4--6--7--6--4---|
G|--4-----------------º|
D|--------------------º|
A|---------------------|
E|---------------------|

e|---------------------------------------------------------
B|--7--6-----4---------------------------------------------
G|--------6-----3--4--1--3-------------?------3--1-----4---
D|--------------------------4--4--3--1--3--4--------4------
A|---------------------------------------------------------
E|---------------------------------------------------------

e|---------------------------------------------------------
B|--------2--------4--7--4--4--7--4-----7--4-----7--4------
G|--3--1-----4--3--------------------6-?------6------------
D|---------------------------------------------------------
A|---------------------------------------------------------
E|---------------------------------------------------------

e|--------------------------------6------------------------
B|-----7--4-----9--7-----9--7--------9--7-?----------------
G|--6--------6--------8--------8-----------8---------------
D|---------------------------------------------------------
A|---------------------------------------------------------
E|---------------------------------------------------------

e|-----------9-9-9-9-9--------6-6-6-6----------------------
B|--7-------------------7----------------------------------
G|-----8--8----------------8---------?---------------------
D|---------------------------------------------------------
A|---------------------------------------------------------
E|---------------------------------------------------------

e|--6--8--9------------------------9--6-----------------7--
B|-----------10-----------------9--------9--7-----7--9-----
G|---------------12--10--7--10-----------?-----8-----------
D|---------------------------------------------------------
A|---------------------------------------------------------
E|---------------------------------------------------------


B           C#                       D#  C#
Aquellos momentos que la muerte me robó
B          C#                    A# A# A#
Aquel sentimiento nunca desapareció
B                C#                     D#  C#
Tanto te echo de menos mi vida no tiene fin
B               C#                         A# A# A#
Sólo tengo tu recuerdos, sólo eso me une a ti.


D#          B   F# C#          B  C#  D#
Se que todo terminó, todo aquello acabó
          B      F#     C#         B   C# D#
Todo el amor que hubo aquí ella se lo llevó
         B    F#  C#            B  C# D#
Quiero rozar tu piel, sentir tu corazón,
            B    F#  C#
Qué fácil fue el ayer mi amor.


B            C#                           D#  C#
Vago por las calles sin tener nada que hacer
B              C#                         A# A# A#
Navegando sin destino sin rumbo que mantener
B              C#                         D#  C#
Recordando mi pasado cuando estaba junto a ti
B               C#                     A# A# A#
Solo por esos recuerdos aun continúo aquí, siempre aquí.


B         C#        D#
Hoy volveré a tu lado una vez más
B                 D#       F#          C#
Volveré a contemplar esa mirada tranquila
B         C#       D#
Lejos de mi sin poderte abrazar
B               D#            F#                  C#
Deseando acariciar tu cuerpo hasta que llegue el día
D#
final.

Solo (esta es la primera parte)

Ste de seguro ke debe estar bueno puesto ke lo
sake de la pagina de warcry...
mis disculpas si me equivoke al traspasarlo... XD

                      T
e|--21b-----17p15h21--24-21p17p15h21-17h21p17p15--|
B|------------------------------------------------|
G|-----------------------------------?------------|
D|------------------------------------------------|
A|------------------------------------------------|
E|------------------------------------------------|

e|-------------------------------------------------|
B|--17?20p17p15------------------------------------|
G|---------------18-19p18pp16--------?-------------|
D|-----------------------------19p17p16------------|
A|---------------------------------------19p17p16--|
E|-------------------------------------------------|

e|--------------------------------------17-22-21-17--|
B|-----------------------------17-19-20--------------|
G|--------------------16-18-19-------------?---------|
D|-----------16-17-19--------------------------------|
A|--16-17-19-----------------------------------------|
E|---------------------------------------------------|

e|--15-19-17-15-14-17-15-14----------|
B|---------------------------17b~~---|
G|-----------------------------------|
D|-----------------------------------|
A|-----------------------------------|
E|-----------------------------------|

e|---------------------------------------------------------
B|---------------------------------------------------------
G|-----------------------------------?-------9-10-12-------
D|---------------------------9-10-12--9-10-12--------------
A|----------9-10-12--9-10-12-------------------------------
E|--9-10-12------------------------------------------------

e|-------------------------------------------------12-14-15-
B|------------------------------12-14-15--12-14-15----------
G|-----------11-12-14--11-12-14------------------?----------
D|--11-12-14------------------------------------------------
A|----------------------------------------------------------
E|----------------------------------------------------------

e|-----------14-15-17----------17-19-21-|--21b-17-----19p17--|
B|--14-15-17----------17-19-20----------|---------20~--------|
G|-----------------------------------?--|--------------------|
D|--------------------------------------|--------------------|
A|--------------------------------------|--------------------|
E|--------------------------------------|--------------------|

e|-21-17----17-22p17-21p17----------17-21p17-22p17--|
B|-------17----------------17----17-----------------|
G|----------------------------18-------?------------|
D|--------------------------------------------------|
A|--------------------------------------------------|
E|--------------------------------------------------|

e|-19p15----15-20p15-19p15----------15-19p15-20p15--|
B|-------15----------------15----15-----------------|
G|----------------------------16-------?------------|
D|--------------------------------------------------|
A|--------------------------------------------------|
E|--------------------------------------------------|

                            T        T
e|-17-14----------14-17p14--20-17p14-22-17p14-20-17--|
B|-------15----15------------------------------------|
G|----------14-------------------------?-------------|
D|---------------------------------------------------|
A|---------------------------------------------------|
E|---------------------------------------------------|

                            T
e|-14----------14-17p14-17--22-17p14--------------|
B|----15----15-----------------------15-----------|
G|-------14----------------------------?14--------|
D|-----------------------------------------16-----|
A|--------------------------------------------17--|
E|------------------------------------------------|

 (falta la segunda parte
  tabajare en ello)

Ohhhh

D#           B   F#    C#
Cada noche suelo regresar
                 B      C#     D#
Cuido sus sueños en la oscuridad (desvaneciéndose...)
Calificar esta versión:
Aviso: Este fichero es trabajo propio de su transcriptor y representa su interpretación personal de la canción. El material contenido en esta página es para exclusivo uso privado, por lo que se prohibe su reproducción o retransmisión, así como su uso para fines comerciales.
Más versiones de Espíritu De Amor, Warcry
Espíritu De Amor
acordes
Espíritu De Amor
tablatura
Descubre más canciones de Warcry