En Un Lugar Sin Dios, Warcry (tablatura)

Autor: zpawn | 33044 visualizaciones



Intro.
|------------------------------------------------|
|------------------------------------------------|
|------------------------------------------------|
|-5-----8--8--7--7-------------------------------|
|-3-----6--6--5--5--8--8-----5----3--3--3---3-3--|
|-------------------6--6-----3----1--1--1---1-1--|

|------------------------------------------------|
|------------------------------------------------|
|------------------------------------------------|
|-5-----8--8--7--7-------------------------------|
|-3-----6--6--5--5--8--8-----5----3--3--3---3-3--|
|-------------------6--6-----3----1--1--1---1-1--|

|------------------------------------------------------|
|------------------------------------------------------|
|------------------------------------------------------|
|-5------8--8--7--7------------------------------------|
|-3------6--6--5--5--8--8----------5-------------6-----|
|--------------------6--6----------3-------------4-----|

|-----------------------------|-------|
|-----------------------------|-------|
|-----------------------------|-------|
|-----------------5-----------|-------|
|---3-------------3--------8--|-8-8-8-|
|---1----------------------6--|-6-6-6-|

Guitarra 1...
  Vi              en mi sueño             oscuridad         a mi  arede-
|-----------------------|-----------------------|------------------------|
|-----------------------|-----------------------|------------------------|
|-----------------------|-----------------------|------------------------|
|-----------------------|-----------------------|------------------------|
|-6-----6-----6-----6-8-|-3-----3-----3-----3-5-|-6-----6-----6-----6-8--|
|-4-4-4-4-4-4-4-4-4-4-6-|-1-1-1-1-1-1-1-1-1-1-3-|-4-4-4-4-4-4-4-4-4-4-6--|

  Dor               os vi llorar          y en mi sueño            había
|------------------------|-----------------------|-----------------------|
|------------------------|-----------------------|-----------------------|
|------------------------|-----------------------|-----------------------|
|------------------------|-----------------------|-----------------------|
|-10----10----10----10-8-|-6-----6-----6-----6-8-|-3-----3-----3-----3-5-|
|-8-8-8-8-8-8-8-8-8-8--6-|-4-4-4-4-4-4-4-4-4-4-6-|-1-1-1-1-1-1-1-1-1-1-3-|

  Algo a  te rra   dor
|----------------------------------------|
|----------------------------------------|
|----------------------------------------|
|----------------------------------------|
|-6-----6--8-----8--10----10-----8-----8-|
|-4-4-4-4--6-6-6-6--8-8-8-8-8-8--6-6-6-6-|

  Oí              las campanas           sentí latir         mi corazón
|-----------------------|-----------------------|------------------------|
|-----------------------|-----------------------|------------------------|
|-----------------------|-----------------------|------------------------|
|-----------------------|-----------------------|------------------------|
|-6-----6-----6-----6-8-|-3-----3-----3-----3-5-|-6-----6-----6-----6-8--|
|-4-4-4-4-4-4-4-4-4-4-6-|-1-1-1-1-1-1-1-1-1-1-3-|-4-4-4-4-4-4-4-4-4-4-6--|

                   Sentí el frescor      de la mañana             la maña
|------------------------|-----------------------|-----------------------|
|------------------------|-----------------------|-----------------------|
|------------------------|-----------------------|-----------------------|
|------------------------|-----------------------|-----------------------|
|-10----10----10----10-8-|-6-----6-----6-----6-8-|-3-----3-----3-----3-5-|
|-8-8-8-8-8-8-8-8-8-8--6-|-4-4-4-4-4-4-4-4-4-4-6-|-1-1-1-1-1-1-1-1-1-1-3-|

  Na       de   mi adiós
|--------------------------------------|
|--------------------------------------|
|--------------------------------------|
|--------------------------------------|
|-6-----6--8-----8--10--------------10-|
|-4-4-4-4--6-6-6-6--8-8-8-8-8-8-8-8-8--|


Guitarra 2...
|------------------|------------------|-----------------|-----------------|
|---9---9-10-9---9-|---9---9-10-9---9-|---6---6-8-6---6-|---6---6-8-6---6-|
|-8---8--------8---|-8---8--------8---|-5---5-------5---|-5---5-------5---|
|------------------|------------------|-----------------|-----------------|
|------------------|------------------|-----------------|-----------------|
|------------------|------------------|-----------------|-----------------|

|------------------|------------------|-----------------|-----------------|
|---9---9-10-9---9-|---9---9-10-9---9-|---8---8-9-8---8-|---8---8-9-8---8-|
|-8---8--------8---|-8---8--------8---|-5---5-------5---|-5---5-------5---|
|------------------|------------------|-----------------|-----------------|
|------------------|------------------|-----------------|-----------------|
|------------------|------------------|-----------------|-----------------|

|------------------|------------------|-----------------|-----------------|
|---9---9-10-9---9-|---9---9-10-9---9-|---6---6-8-6---6-|---6---6-8-6---6-|
|-8---8--------8---|-8---8--------8---|-5---5-------5---|-5---5-------5---|
|------------------|------------------|-----------------|-----------------|
|------------------|------------------|-----------------|-----------------|
|------------------|------------------|-----------------|-----------------|

  ?Se toca en la Primera parte?
|------------------|-----------------|-----------------|-----------------|
|---9---9-10-9---9-|---6---6-8-6---6-|---8---8-9-8---8-|---6---6-8-6---6-|
|-8---8--------8---|-5---5-------5---|-5---5-------5---|-5---5-------5---|
|------------------|-----------------|-----------------|-----------------|
|------------------|-----------------|-----------------|-----------------|
|------------------|-----------------|-----------------|-----------------|

  ?Se toca en la Segunda parte?
|------------------|-----------------|-------------------|
|---9---9-10-9---9-|---6---6-8-6---6-|---8---8-9-8---8-8-|
|-8---8--------8---|-5---5-------5---|-5---5-------5-----|
|------------------|-----------------|-------------------|
|------------------|-----------------|-------------------|
|------------------|-----------------|-------------------|


  Quiero escapar quiero salir        quiero reunirme junto a ti
|---------------------------------------------------------------------|
|---------------------------------------------------------------------|
|---------------------------------------------------------------------|
|---------------------------------------------------------------------|
|-6--6---6--6---6--6---6--6---6--8---3--3---3--3---3--3---3--3---3--3-|
|-4--4---4--4---4--4---4--4---4--6---1--1---1--1---1--1---1?-1---1--1-|


  No aguanto más la oscuridad       me falta el aire al respirar
|---------------------------------------------------------------------|
|---------------------------------------------------------------------|
|---------------------------------------------------------------------|
|-5--5---5--5-----------------8--7------------------------------------|
|-3--3---3--3---8--8---8--8---6--5---6--6---6--6---3--3---3--3---3--5-|
|---------------6--6---6--6----------4--4---4--4---1--1---1--1---1--3-|

  Quiero escapar quiero salir qué es este sitio que hago aquí
|---------------------------------------------------------------------|
|---------------------------------------------------------------------|
|---------------------------------------------------------------------|
|---------------------------------------------------------------------|
|-6--6---6--6---6--6---6--6---6--8---3--3---3--3---3--3---3--3---3--3-|
|-4--4---4--4---4--4---4--4---4--6---1--1---1--1---1--1---1?-1---1--1-|


  No tengo ganas de imaginar         que ha llegado mi final...
|---------------------------------------------------------------------|
|---------------------------------------------------------------------|
|---------------------------------------------------------------------|
|-5--5---5--5-----------------8--7------------------------------------|
|-3--3---3--3---8--8---8--8---6--5---6--6---6--6---3--3---3--3---3--3-|
|---------------6--6---6--6----------4--4---4--4---1--1---1--1---1--1-|


|---------------------|
|---------------------|
|---------------------|
|---------------------|
|-5-5-5-5-5-5-5-5-5-5-|
|-3-3-3-3-3-3-3-3-3-3-|


  Estoy sentado en un lugar del cementerio
|------------------------------------------------|
|------------------------------------------------|
|------------------------------------------------|
|-5-----8--8--7--7-------------------------------|
|-3-----6--6--5--5--8--8-----5----3--3--3---3-3--|
|-------------------6--6-----3----1--1--1---1-1--|

  Veo como me acompañáis en mi entierro
|------------------------------------------------|
|------------------------------------------------|
|------------------------------------------------|
|-5-----8--8--7--7-------------------------------|
|-3-----6--6--5--5--8--8-----5----3--3--3---3-3--|
|-------------------6--6-----3----1--1--1---1-1--|

  Intento gritar pero ya sé  que no puedo despertar
|------------------------------------------------------|
|------------------------------------------------------|
|------------------------------------------------------|
|-5------8--8--7--7------------------------------------|
|-3------6--6--5--5--8--8----------5-------------6-----|
|--------------------6--6----------3-------------4-----|

  Huir de este lugar sin dios
|-----------------------------|-------|
|-----------------------------|-------|
|-----------------------------|-------|
|-----------------5-----------|-------|
|---3-------------3--------8--|-8-8-8-|
|---1----------------------6--|-6-6-6-|

  No sé si es un sueño del cual soy dueño o simplemente es la pura realidad
|-------------------------------------------------------------------------|
|-------------------------------------8-----8-----8-----8-----8-----8-----|
|--8-----8-----8-----5-----5-----5----5-5-5-5-5-5-5-5-5-5-5-5-5-5-5-5-----|
|--6-6-6-6-6-6-6-----3-3-3-3-3-3-3----------------------------------------|
|-------------------------------------------------------------------------|
|-------------------------------------------------------------------------|

  No sé si vivo o quizás muerto perdido en el camino al más allá
|-------------------------------------------------------------------------|
|-------------------------------------8-----8-----8-----8-----8-----8-----|
|--8-----8-----8-----5-----5-----5----5-5-5-5-5-5-5-5-5-5-5-5-5-5-5-5-----|
|--6-6-6-6-6-6-6-----3-3-3-3-3-3-3----------------------------------------|
|-------------------------------------------------------------------------|
|-------------------------------------------------------------------------|

  Tan solo quiero despertar tan solo quiero despertar
|---------------------------------------------------|
|---------------------------------------------------|
|---------------------------------------------------|
|---------------------------------------------------|
|-6----------3-----------5--------------------------|
|-4----------1-----------3--------------------------|





Calificar esta versión:
Aviso: Este fichero es trabajo propio de su transcriptor y representa su interpretación personal de la canción. El material contenido en esta página es para exclusivo uso privado, por lo que se prohibe su reproducción o retransmisión, así como su uso para fines comerciales.
Más versiones de En Un Lugar Sin Dios, Warcry
En Un Lugar Sin Dios
acordes
En Un Lugar Sin Dios
tablatura
Descubre más canciones de Warcry