El Más Triste Adios, Warcry (tablatura)

Autor: Anónimo | 33728 visualizaciones

ACORDES EN QUINTAS UTLIZADOS EN ESTA CANCION


      D#5   A#5    B5    F#5   F5   C#5   D5

e------------------------------------------------------------
B------------------------------------------------------------
G------8----3------4----------------6-----7--------------------
D------8----3------4----4-----3-----6-----7--------------------
A------6----1------2----4-----3-----4-----5--------------------
E-----------------------2-----1------------------------------

Intro:

Minuto(00:30)


          --PM--
       D#5  A#5    B5   F#5   F5

e------------------------------------------------------------
B------------------------------------------------------------
G------8----3-33-----4---------------------------------------
D------8----3-33-----4----4-----3----------------------------
A------6----1-11-----2----4-----3----------------------------
E-------------------------2-----1----------------------------x3

       B5  C#5    D#5   A#5   B5

e------------------------------------------------------------
B------------------------------------------------------------
G------4-----6------8-----3----4-------------------------------
D------4-----6------8-----3----4------------------------------
A------2-----4------6-----1----2------------------------------
E------------------------------------------------------------



B5              F#5
Mirando el exterior
                D#5
Hundido entre algodón
                A#5
Con los ojos nublados
B5            F#5
Mirando sin mirar
               D#5
A través del cristal
               A#5
Recordando un pasado
        B5               D#5
En el q tu estabas junto a mi
             F#5
Si pudiera elegir

           A#5   D5
Querria regesar

B5                      D#5
Aquel tiempo en el q los dos
                F#5
Pensamos q este amor
            A#5    D5
No tendria final..

AQUÍ LOS ACORDES VAN CON PALM MUTE
(apoyas la palma de la mano derecha mientras
rasgas las cuerdas como un apagado)

B5              F#5
Cuando te vi marchar
             D#5
Entendi q la edad
            A#5  D5  B5
Habia marchitado..
                  F#5
La flor de nuestro amor
                 D#5
Con tanta fuerza ardio
               A#5
Q se habia apagado


    B5                    D#5
Mas hoy! te vuelvo a ver marchar
               F#5
Sabiendo q ahora ya
             A#5   D5
No te vere volver...

   B5                 D#5
Te vas, te vas dejandome
            F#5
Sin nada q decir
              A#5   D5
Sin nada q ofrecer!


  D#5    A#5       B5          F#5  F5
Y deeejame, q te llore en un rincon
D#5  A#5      B5     F#5  F5
Se q asi, sera mejor
D#5  A#5       B5       F#5  F5
Ooolvide, lo q eras para mi
      B5         C#5          D#5    A#5
Ahora solo siento un dolor sin fin...

SOLO:

D#5   A#5      B5   F#5   F5 X3


  D#5    A#5       B5          F#5  F5
Y deeejame, q te llore en un rincon
D#5  A#5      B5     F#5  F5
Se q asi, sera mejor
D#5  A#5       B5       F#5  F5
Ooolvide, lo q eras para mi
      B5         C#5          D#5    A#5
Ahora solo siento un dolor sin fin...
Calificar esta versión:
Aviso: Este fichero es trabajo propio de su transcriptor y representa su interpretación personal de la canción. El material contenido en esta página es para exclusivo uso privado, por lo que se prohibe su reproducción o retransmisión, así como su uso para fines comerciales.
Más versiones de El Más Triste Adios, Warcry
El Mas Triste Adios
acordes
El Más Triste Adiós (ver 2)
acordes
El Más Triste Adios
tablatura
El Más Triste Adios (ver 2)
tablatura
El Más Triste Adios (ver 3)
tablatura
Descubre más canciones de Warcry