El Guardian De Troya, Warcry (tablatura)

Autor: dave | 25814 visualizaciones

Guitarra 1
E|---------------------------------------------------|
B|---------------------------------------------------|
G|---------------------------------------------4v----|
D|---2-4-5------2-4-5------2-4-5-4-2-4-7-5---7-------|
A|-2----------2----------2---------------------------|
E|---------------------------------------------------|
  Guitarra 2
E|---------------------------------------------------|
B|---------------------------------------------------|
G|---------------------------------------------------|
D|-------2-2----2-----2----2-------------------2-2---|
A|--------2-2-2---2--2-2-2---2------------------2-2--|
E|-------0---0------0---0------3-2-0-2-5-3-2-5-0---0-|
-
  Guitarra 1
E|----------------------------------------------------|
B|----------------------------------------------------|
G|---2-4-4/5v------4-2/4-4--0------2--0-4-------------|
D|-2--------------------------2---------------0-2-----|
A|----------------------------------------------------|
E|----------------------------------------------------|
  Guitarra 2
E|----------------------------------------------------|
B|----------------------------------------------------|
G|-------------2-------------------2-2--4---4---------|
D|---2-------2---2---------2----2---2-2---4---0-2-2---|
A|-2---2---0-------2-0/2--2-2--2-2-0----2--------2-2--|
E|-----------------------0----0-----------------0---0-|

  Guitarra 1
E|---------------------------------------------|
B|---------------------------------------------|
G|---2-4-5v------4-2/4-4--0------2--0-4--------|
D|-2------------------------2------------------|
A|---------------------------------------------|
E|---------------------------------------------|
  Guitarra 2
E|------------------------------------------|
B|------------------------------------------|
G|-----------2-------------------2-2--4---4-|
D|---2-----2---2---------2----2---2-2---4---|
A|-2---2-0-------2-0/2--2-2--2-2-0----2-----|
E|---------------------0----0---------------|

INTRODUCCION (2da parte)

  Guitarra 1
E|----------------------------------------------------|
B|----------------------------------------------------|
G|----------------------------------------------------|
D|------4-5--5------4-5--5-------4-5-4---4-7-5-4-7-9v-|
A|----7-----------7------------7-------7--------------|
E|-7b----------7b----------7b-------------------------|
  Guitarra 2
E|--------------------------------------------------------|
B|--------------------------------------------------------|
G|--------------------------------------------------------|
D|--------5--5x-------5--5x--------5---2---5---7---9----5-|
A|--------5--5x-------5--5x--------5---2---5---7---9----5-|
E|--------3--3x-------3--3x--------3---0---3---5---7----3-|


  Guitarra 1
E|---------------------------------------------|
B|---------------------------------------------|
G|---------------------------------------------|
D|---7-9-9/10v----9--7/9-9---5-----------------|
A|-7---------------------------7-----12v-9-7-6-|
E|---------------------------------------------|
  Guitarra 2
E|----------------------------------------------------|
B|----------------------------------------------------|
G|----------------------------------------------------|
D|-7-----9--------------------------------------------|
A|-7-----9--------------------------------------------|
E|-5-----7-888888877777773333330000005555333222200000-|
         PM;;,,,,,,,,,,,,,,,,,,,,,,,,,,,,,,,,,,,,,,,,,,


  Guitarra 1
E|-------|16x
B|-------|
G|-------|
D|-5p4p2-|
A|-------|
E|-------|
  Guitarra 2
E|--------------------------------------------------------|
B|--------------------------------------------------------|
G|--------------------------------------------------------|
D|-2---7---9---5-5-5-5/7-7-----2---7---9---5-5-5-5-54-4--|
A|-2---5---7---3-3-3-3/5-5-----2---5---7---3-3-3-3-32-2--|
E|-0---------------------------0--------------------------|


   E5                 A5
Destino cruel que me obliga a defender
       G5                            D5    C#5
los frutos de una traición de un desatino
 E5                    A5
por una mujer todo un reino condenó
         G5                          D5    C#5
no entiendo la situación ni la he elegido

C5                      G5
Soy el guardián nadie impera en mi ciudad
        A5                             B5    D5
y quien dentro quiera entrar peleara conmigo
C5                    G5
no hay una razón solo tengo una misión
      A5                      B5
combatir hasta el final al enemigo

  Guitarra 1
E|-------|8x
B|-------|
G|-------|
D|-5p4p2-|
A|-------|
E|-------|
  Guitarra 2
E|---------------------------|
B|---------------------------|
G|---------------------------|
D|-2---7---9---5-5-5-5-54-4-|
A|-2---5---7---3-3-3-3-22-2-|
E|-0-------------------------|

 E5                 A5
Mucho dura ya la batalla la presión
       G5                            D5    C#5
nunca han visto un corazón tan vengativo
E5                    A5
no me toca ami el buscar la solución
       G5                          D5    C#5
solo sigo una razón lucho por los mios

C5                      G5
Soy el guardián nadie impera en mi ciudad
        A5                             B5    D5
y quien dentro quiera entrar peleara conmigo
C5                    G5
no hay una razón solo tengo una misión
      A5                      B5
combatir hasta el final al enemigo

          E5
Puede que hoy llegue el final
             G5  E5    G5   A5 B5
puede que el día yo no vea acabar
 G5  A5 B5 C5 B5    G5 E5 A5      B4      E5
mas si ese es mi destino  no lo haré esperar


E|---------------------------------------------------|
B|---0---0-1-0---0-----------0-------0-1-0-----------|
G|-0-0-2-0-2-0-2-0-0-2---0-2-0-2-0---0-2-0-2-0---0---|
D|-2---4-------4---2-4-4-2-4---4-2-4-------4-2-4-2---|
A|---------------------5-----------5-----------5-----|
E|---------------------------------------------------|

E|---------------------------------------------------|
B|---0---0-1-0---0-----------0-----------------------|
G|-0-0-2-0-2-0-2-0-0-2---0-2-0-2-0---0-2-------------|
D|-2---4-------4---2-4-4-2-4---4-2-4-2-4-2-0-2-0-----|
A|---------------------5-----------5-----3-2-3-2-3-2-|
E|-----------------------------------------------5-3-|

E|---------------------------------------------------|
B|---0---0-1-0---0-----------0-------0-1-3-1-0-------|
G|-0-0-2-0-2-0-2-0-0-2---0-2-0-2-0---0-2-4-2-0-2-0---|
D|-2---4-------4---2-4-4-2-4---4-2-4-----------4-2---|
A|---------------------5-----------5-----------------|
E|---------------------------------------------------|

E|---------------------------|-------------|
B|---0---0-1-0---0-----------|-------------|
G|-0-0-2-0-2-0-2-0-0-2---0-2-|---------4---|
D|-2---4-------4---2-4-4-2-4-|--7--9---4---|
A|---------------------5-----|--5--7---2---|
E|---------------------------|-------------|


 Base del solo:
E|------------------------------------|
B|------------------------------------|
G|-4--2-4-5-4-7----4--2-4-5-4-7-7-7-7-|
D|-4--2-4-5-4-7----4--2-4-5-4-7-7-7-7-|
A|-2--0-2-3-2-5----2--0-2-3-2-5-5-5-5-|
E|------------------------------------|

E|-----------------------------------------|
B|-----------------------------------------|
G|-4--2-4-5-4-7----4--2-4-5-4--------------|
D|-4--2-4-5-4-7----4--2-4-5-4--------------|
A|-2--0-2-3-2-5----2--0-2-3-2--2-3-0-2-0---|
E|---------------------------------------3-|

E|------------------------------------|
B|------------6---------------6-6-6-6-|
G|-7--5-7-8-7-5----7--5-7-8-7-5-5-5-5-|
D|-7--5-7-8-7-3----7--5-7-8-7-3-3-3-3-|
A|-5--3-5-6-5------5--3-5-6-5---------|
E|------------------------------------|

E|-----------------------------------------|
B|------------6----------------------------|
G|-7--5-7-8-7-5----7--5-7-8-7--------------|
D|-7--5-7-8-7-3----7--5-7-8-7--------------|
A|-5--3-5-6-5------5--3-5-6-5--5-6---5-----|
E|---------------------------------8---8-6-|


Puente:
G5 G5 G5 G5 A5 B5 C5 D5 D5

         E5
Ya se acabó triste final
             G5    E5    G5   A5     B5
caigo en la tierra con una herida mortal
G5     A5 B5 C5 B5    G5 E5 A5      B4
  mas si ese es mi destino  no lo haré esperar

E|---------------|
B|---------------|
G|---------------|
D|-9-9-9-9-8-8-8-|
A|-7-7-7-7-6-6-6-|
E|---------------|

          E5
siento llegar la oscuridad
          G5    E5    G5       A5     B5
muero tranquilo he luchado hasta el final
G5   A5 B5 C5 B5  G5 E5    A5   B4          E5
 por mi honor doy la vida no puedo dar maaaaaaas!


E|--------------------------------------------------------|
B|--------------------------------------------------------|
G|--------------------------------------------------------|
D|--------------------------------------------------------|
A|--------------------------------------------------------|
E|-00000000000000000000000---0---2----3----5-----6--------|
 

E|--------------------------------------------------------|
B|--------------------------------------------------------|
G|--------------------------------------------------------|
D|----------------------------------------------------7-9-|
A|------------------------0---2----3----5----7--------5-7-|
E|-0----2----3----5----7-------------------------0--------|
Calificar esta versión:
Aviso: Este fichero es trabajo propio de su transcriptor y representa su interpretación personal de la canción. El material contenido en esta página es para exclusivo uso privado, por lo que se prohibe su reproducción o retransmisión, así como su uso para fines comerciales.
Más versiones de El Guardian De Troya, Warcry
El Guardián De Troya
acordes
El Guardian De Troya
tablatura
Descubre más canciones de Warcry