Cada Vez, Warcry (bajo)

Autor: Anónimo | 31067 visualizaciones

esta es mi primera transcripción de warcry
esta gran balada que envío espero que les guste

cada vez que algo ha ido mal
siempre estabas a mi lado
intentándome ayudar
cada vez que hemos hecho una canción
con paciencia has escuchado
Los frutos de la ilusión.

(el bajo entra aquí)
cuantas horas has pasado
    a     b     e     c#
g|-----|-----|-----|-----|
d|-----|-----|-----|-----|
a|--0--|--2--|-----|--4--|
e|-----|-----|--0--|-----|

relatando mis proyectos
     a     b    c#    c#
g|-----|-----|-----|-----|
d|-----|-----|-----|-----|
a|--0--|--2--|--4--|--4--|
e|-----|-----|-----|-----|

no creas que no agradezco
    a     b     c#
g|-----|-----|-----|
d|-----|-----|-----|
a|--0--|--2--|--4--|
e|-----|-----|-----|

porque tu me has hecho feliz
    a     b     e
g|-----|-----|-----|
d|-----|-----|-----|
a|--0--|--2--|-----|
e|-----|-----|--0--|

has cambiado mi vida (entra distorsión)
     e       a       e       c#      b
g|-------|-------|-------|-------|-------|
d|-------|-------|-------|-------|-------|
a|-------|---0---|-------|---4---|---2---| x 2
e|---0---|-------|---0---|-------|-------|

este mundo de locos
     a       b       c#
g|-------|-------|-------|
d|-------|-------|-------|
a|---0---|---2---|---4---| x 3
e|-------|-------|-------|

y hoy por fin tu deseo se cumplió
     a       b       e
g|-------|-------|-------|
d|-------|-------|-------|
a|---0---|---2---|-------|
e|-------|-------|---0---|

amor, sé que el fuego perdurara
     e       c#      a       b
g|-------|-------|-------|-------|
d|-------|-------|-------|-------|
a|-------|---4---|---0---|---2---|
e|---0---|-------|-------|-------|

aunque pasen mil años
     e       c       a        b
g|-------|-------|-------|-------|
d|-------|-------|-------|-------|
a|-------|---3---|---0---|---2---|
e|---0---|-------|-------|-------|

amor yo se que tu eres para mi
     e       c#      a       b
g|-------|-------|-------|-------|
d|-------|-------|-------|-------|
a|-------|---4---|---0---|---2---|
e|---0---|-------|-------|-------|

esa chispa de vida que me ayuda a seguir
     e       c       a       b
g|-------|-------|-------|-------|
d|-------|-------|-------|-------|
a|-------|---3---|---0---|---2---|
e|---0---|-------|-------|-------|

me ayuda a luchar junto a ti
     c       a
g|-------|-------|
d|-------|-------|
a|---3---|---0---|
e|-------|-------|

aquí viene el solo que lo pueden hacer igual que los versos
y luego se repite desde "amor, sé que el fuego perdurara"

LE DEDICO ESTE TRABAJO Y ESTA CANCION a una persona muy especial
el amor de mi vida.
TAMARA se que el fuego perdurara aun que pasen mil años ya nada lo apagara
te amo mi niñita gollita pronto ESTAREMOS JUNTOS...
ESPERO QUE VEAS ESTO ALGUN DIA... VIVA CHILE.
Calificar esta versión:
Aviso: Este fichero es trabajo propio de su transcriptor y representa su interpretación personal de la canción. El material contenido en esta página es para exclusivo uso privado, por lo que se prohibe su reproducción o retransmisión, así como su uso para fines comerciales.
Más versiones de Cada Vez, Warcry
Cada Vez
acordes
Cada Vez
tablatura
Cada Vez
bajo
Descubre más canciones de Warcry