Otra Oportunidad, Wamba (tablatura)

Autor: danielito1 | 31244 visualizaciones

aca esta el intro es el mismo que la toca la banda
apenas termine el intto comienza la segunda guitarra con los acordes C D C D 

Intro

                          G                D           C        D
g----------12-14-12-------12b-12b-12-14-16-14b-14b-14b-12b-12b------------
D-10s12-14----------14-12--------------------------------------14b-12b-14~

                       G                 D              C        D
e--------------------------------------------------------------------------
b--------------------------------------------------------------------------
g-------12-14-12-------12b-12b-12-14-16-14-12----12b--12-14-16-14-12----12b
D-12-14----------14-12------------------------14---------------------14----

e--------12-10~
b--------------
g--12-12-------
D--------------
Calificar esta versión:
Aviso: Este fichero es trabajo propio de su transcriptor y representa su interpretación personal de la canción. El material contenido en esta página es para exclusivo uso privado, por lo que se prohibe su reproducción o retransmisión, así como su uso para fines comerciales.
Más versiones de Otra Oportunidad, Wamba
Otra Oportunidad
acordes
Otra Oportunidad
tablatura
Descubre más canciones de Wamba