Compadre, Wamba (tablatura)

Autor: St3vEn | 20063 visualizaciones

Bno aki esta el punteo del comienso, ojala les sirva
e|-------------------------------------------|
B|---------2--2------------------------------|
G|-------2-----4-2-4--2-2-2-4-2--2-2---------|
D|-2-2/4-----------------------------4-22----|
A|-------------------------------------------|
E|-------------------------------------------|

e|-------------------------------------------|
B|---------2--2------------------------------|
G|-------2-----4-2-3--3-3-3-3-3--33333-2-----|
D|-2-2/4-------------------------------------|
A|-------------------------------------------|
E|-------------------------------------------|

mi correo es ste13_5@hotm
Calificar esta versión:
Aviso: Este fichero es trabajo propio de su transcriptor y representa su interpretación personal de la canción. El material contenido en esta página es para exclusivo uso privado, por lo que se prohibe su reproducción o retransmisión, así como su uso para fines comerciales.
Más versiones de Compadre, Wamba
Compadre
acordes
Compadre
tablatura
Descubre más canciones de Wamba