El Club De Las Almas Perdidas, Walter Giardino (tablatura)

Autor: Anónimo | 42024 visualizaciones

SOLO:


e -------------------------------------------------------------
B -------------------------------------------------------------
G -------------------------------------------------------------
D -------------------------------------------------------------
A --5/7b---7-9-10-9-7-9---------10b---10-12-14-12-10-9-12-9----
E -----------------------7-10----------------------------------


e -----------------------------------------------------------------------------------
B --19---19-20-19-17--17-15-14-15-19--17-15-14-15-14---------------------------------
G ------------------------------------------------------------12-14--14/17-16-14-12--
D ---------------------------------------------------12-14-15------------------------
A -----------------------------------------------------------------------------------
E -----------------------------------------------------------------------------------


e ----------------------------------19b-19-15/17-19---------------------------------
B --------------------------------------------------13-15h-13-12-13h-12-10-12h-10---
G --16-17-19-17-16-17-16-12----12---------------------------------------------------
D ----------------------------------------------------------------------------------
A ----------------------------------------------------------------------------------
E ----------------------------------------------------------------------------------


e ------------------------------------------------------------------------------------------
B --12b-15/(17)-15/(17)-15b--15/(17)-15/(17)-15b--------------------------------------------
G --------------------------------------------------------12-14/1614-12-11--12/14-(14)/16--
D -----------------------------------------------12-14-15-----------------------------------
A ------------------------------------------------------------------------------------------
E ------------------------------------------------------------------------------------------


e --------------------------------------------------------------------------------
B ----------17-20-19-------14-15-17-19-19b--17-15-17--17-15-14-12/14/151412-----
G --14--14-----------14-16--------------------------------------------------------
D --------------------------------------------------------------------------------
A --------------------------------------------------------------------------------
E --------------------------------------------------------------------------------


e -------------------------------------------------
B --14-12------------------------------------------
G --------15-14-12---------------------------------
D -----------------14-15-17-14---12-10-9-9b---/(5)-
A -------------------------------------------------
E -------------------------------------------------
Calificar esta versión:
Aviso: Este fichero es trabajo propio de su transcriptor y representa su interpretación personal de la canción. El material contenido en esta página es para exclusivo uso privado, por lo que se prohibe su reproducción o retransmisión, así como su uso para fines comerciales.
Más versiones de El Club De Las Almas Perdidas, Walter Giardino
El Club De Las Almas Perdidas
acordes
El Club De Las Almas Perdidas
tablatura
Descubre más canciones de Walter Giardino