Corte Porteño, Walter Giardino (tablatura) (ver 2)

Autor: Anónimo | 37839 visualizaciones

INTRO:                                                                                                             C5/C5#

Eb|----------------------------------------------------------------------------------------------------------------------||
Bb|----------------------------------------------------------------------------------------------------------------------||
Gb|-----------------------------------------------------------------------------------------------------------------6-7--||
Db|------4------6------4------6----7-6-4------4------6------4------6----7-6-4------4------6------4------6---7-6-4---6-7--||
Ab|--6-6---6--6---6--6---6--6---6---------6-6---6--6---6--6---6--6---6---------6-6---6--6---6--6---6--6---6---------4-5--||
Eb|----------------------------------------------------------------------------------------------------------------------||

D5 / E5 / E5# / G5 / A5 / A5# / A5 / G5 / E5# / E5 / E5#~ / G5 / A5~
D5 / E5 / E5# / G5 / A5 / A5# / A5 / G5 / E5# / E5 / E5#~    Con Tremolo picking

Eb|--13-12-10-9---------------|
Bb|-------------11-10-8-------|
Gb|---------------------10-9--|
Db|---------------------------|
Ab|---------------------------|
Eb|---------------------------|

D5   G5      C5           D5         E5# / E5 / G5 / E5# / E5
Ella vive esperando oculta oscuridad,

D5            G5       C5        D5
es un alma porteña y ronda por la ciudad

G5                        Dm   G5 / F5 / D5 / D5#
compañera de los que están

A5# / C5 / D5 / C5 / A5#
marginados por los demás.

 C5#   A5#                  C5 / D5 / E5 / D5 / C5
Una ilusión que abrazará vagabundos...

G5 / A5 / A5# / A5 / G5
La expresión de su rostro existe en la sociedad
Mensajera cruel del amor cuando ya no están
Sombra oculta en la eternidad,
en la esencia de su verdad,
puede romperlos corazones del mundo.

 D5 G5 C5  C5# D5 E5 D5 A5#    F5 G5 A5
Conocí su abrazo en otro tiempo

D5 G5 C5  C5# D5 E5 D5 A5#    F5 G5 A5
y sufrí su fufia en el momento

D5 G5 C5  A5 D5 A5# F5 A5
Y la ví partir hacia otro lado

D5 G5 C5  A5 A5#             C5
Entendí a mi soledad, tu soledad,la soledad

SOLO GUITARRA 1 , 2 y 3G5 / G5 / G5 / G5G5 / G5 / G5 / G5

(A partir de acá baja un semitono todo el tema)

Ella vive esperando oculta oscuridad,
es un alma porteña y ronda por la ciudad
compañera de los que están
marginados por los demás
Una ilusión que abrazará vagabundos...
Conocí su abrazo en otro tiempo
y sufrí su furia en el momento
Y la ví partir hacia otro lado.
Entendí a mi soledad, tu soledad,la soledad...

Solo guitarra (1)

Eb|------------------------------------------------------7-8-8^7-5---10/(11)-10-10^8-7-8^7^5-15/(17)-15^12---------15---------|
Bb|-----------------------------------------------8/(10)-----------6---------------------------------------15/(17)----15/(17)-|
Gb|----4-5-7-9-9/(10)-9-9^7---------7/(9)-7/(9)~------------------------------------------------------------------------------|
Db|-/7----------------------10-9-10~------------------------------------------------------------------------------------------|
Ab|---------------------------------------------------------------------------------------------------------------------------|
Eb|---------------------------------------------------------------------------------------------------------------------------|

Solo guitarra (2)

Eb|--11^9^7---7--11^7-11^7----7--11^9^7---7--11^7--+--6^9^7^6----6--9^6-9^6----6--9^7^6----6--9^6-|
Bb|---------7---------------7-----------7----------+-----------7-------------7-----------7--------|
Gb|------------------------------------------------+----------------------------------------------|
Db|------------------------------------------------+----------------------------------------------|
Ab|------------------------------------------------+----------------------------------------------|
Eb|------------------------------------------------+----------------------------------------------|

Eb|--14^11----11-14^11-14^11----11--14^13^11----11-14^11-+-10^13^11^10----10--13^10--13^10-----10--13^11^10----10--13^10-|
Bb|--------11----------------11--------------11----------+-------------10------------------11---------------11-----------|
Gb|------------------------------------------------------+---------------------------------------------------------------|
Db|------------------------------------------------------+---------------------------------------------------------------|
Ab|------------------------------------------------------+---------------------------------------------------------------|
Eb|------------------------------------------------------+---------------------------------------------------------------|

Eb|-18^14----14--18^14--18^14-----14--18^16^14-----14--18^14-+-13^16^14^13----13--16^13--16^13----13--16^14^13-----13--16^13-|
Bb|-------14-------------------14---------------14-----------+-------------14------------------14---------------14-----------|
Gb|----------------------------------------------------------+---------------------------------------------------------------|
Cb|----------------------------------------------------------+---------------------------------------------------------------|
Ab|----------------------------------------------------------+---------------------------------------------------------------|
Eb|----------------------------------------------------------+---------------------------------------------------------------|

Eb|--16--------17--------16--------17--------21^17-----21^17-----21--||
Bb|-----17--------17--------17--------17-----------17--------17------||
Gb|--------16--------16--------16--------16--------------------------||
Db|------------------------------------------------------------------||
Ab|------------------------------------------------------------------||
Eb|------------------------------------------------------------------||

Solo (3) 'Canaro en París':SoXxxxxxxxxxxxxxxxxxxxxxxxxxxxxxxxxxX2

Eb|-9-9-9-9--9-9-9--9-------------+-9-9-9-9--9-9-9--9----------------------------------------------------------|
Bb|-------------------10----------+-------------------12-10-9--12-10-9----10-9----------9-10-12--9-12-9--------|
Gb|---------------------11--------+------------------------------------11------11-10-11------------------------|
Db|------------------------12-11~-+---------------------------------------------------------------------12-11~-|
Ab|-------------------------------+----------------------------------------------------------------------------|
Eb|-------------------------------+----------------------------------------------------------------------------|

Eb|---------------------------------------+---------------------------------------|
Bb|-12-12-12-12--12-12-12--12-9-----------+-12-12-12-12--12-12-12--12-9-----------|
Gb|-----------------------------10--------+-----------------------------10--------|
Db|--------------------------------12-11~-+--------------------------------12-11~-|
Ab|---------------------------------------+---------------------------------------|
Eb|---------------------------------------+---------------------------------------|

Eb|-------------------------------------------------------12--------------------------------|
Bb|-12-12-12-12--12-12-12--12-----------12----12-14-15-14----15-14-12----------12-----------|
Gb|---------------------------14--13-14----14-------------------------14-13-14----14-13-11~-|
Db|-----------------------------------------------------------------------------------------|
Ab|-----------------------------------------------------------------------------------------|
Eb|-----------------------------------------------------------------------------------------|

Eb|--9-9-9-9--9-9-9--9--------------+--9-9-9-9--9-9-9--9--------------|
Bb|--------------------10-----------+--------------------10-----------|
Gb|-----------------------11--------+-----------------------11--------|
Db|--------------------------12-11~-+--------------------------12-11~-|
Ab|---------------------------------+---------------------------------|
Eb|---------------------------------+---------------------------------|

Eb|-9-9-9-9--9-9-9--9-----------9----9-10-11-10--12-14--15-14-12-----14-12--------12-----------------------19-|
Bb|-------------------12--11-12---12-----------------------------15--------15-14-----15-14-12-----------19----|
Gb|--------------------------------------------------------------------------------------------15-16-18-------|
Db|-----------------------------------------------------------------------------------------------------------|
Ab|-----------------------------------------------------------------------------------------------------------|
Eb|-----------------------------------------------------------------------------------------------------------|

Eb|-----------9-10-9--10-12--14-12-10-----12-10-------+-------------------------12-----------------------|
Bb|--12-11-12-------------------------14--------14-12-+----------12-14-12-14-15----15-14-12--15-14-12----|
Gb|---------------------------------------------------+-14-13-14--------------------------------------14-|
Db|---------------------------------------------------+--------------------------------------------------|
Ab|---------------------------------------------------+--------------------------------------------------|
Eb|---------------------------------------------------+--------------------------------------------------|

Eb|------------------------9-10-9--12--------------------||
Bb|-----------10-12-10-12-------------15-14-12-----------||
Gb|--13-11-13----------------------------------14-13-11--||
Db|------------------------------------------------------||
Ab|------------------------------------------------------||
Eb|------------------------------------------------------||
Calificar esta versión:
Aviso: Este fichero es trabajo propio de su transcriptor y representa su interpretación personal de la canción. El material contenido en esta página es para exclusivo uso privado, por lo que se prohibe su reproducción o retransmisión, así como su uso para fines comerciales.
Más versiones de Corte Porteño, Walter Giardino
Corte Porteño
tablatura
Corte Porteño (ver 2)
tablatura
Descubre más canciones de Walter Giardino