Alquimia, Walter Giardino (tablatura)

Autor: Anónimo | 34674 visualizaciones

Esta canción aunque no los ponga en algunas partes lleva muchos ligados, de todas formas
recomiendo esta canción a alguien que ya este avanzado pues los ligados salen solos sin necesidad
de escribirlos, tambien es por el tema de la improvización, como veran, Giardino improviza casi
todo mayormente en los  solos.
Lo unico que no saque fue el riff 5 y la ultima parte de la intro del solo que son casi lo mismo
nomas se que es en la escala diminuida y con palm mute, todo lo demas esta escrito,


Afinación: 40-30 (La afinacion de la guitarra de metal neoclasico))

Introduccion

-20-17--20-19-17-19-16------16-17-13--17-15-13-15-12------12-13-10--13-12-10-12-9-----9------
------17--------------17--17--------13--------------13--13--------10-------------10-10-------
------------------------16----------------------------12---------------------------9---------
---------------------------------------------------------------------------------------------
---------------------------------------------------------------------------------------------
---------------------------------------------------------------------------------------------

-/13-12-10-------------------------------|
-----------13-12-10-13-12-10---10-12-10--|
-----------------------------13----------|
-----------------------------------------|
-----------------------------------------|
-----------------------------------------|

Riff 1
-------------------------------------------------------------------------------------
-------------------------------------------------------------------------------------
-------------------------------------------------------------------------------------
-------------------------------------------------------------------------------------
000-3-00-5-00-5-6-7--000-3-00-7-6-5-6-5-3--000-3-00-5-00-5-6-7--000-3-00-7-6-5-6-5-3-
-------------------------------------------------------------------------------------

----------------------------------------------------------|
----------------------------------------------------------|
----------------------------------------------------------|
----------------------------------------------------------|
-000-3-00-5-00-5-6-7--000-3-00-7-6-5-6-5-3-5-3-2-0--------|
----------------------------------------------------------|

Estos son todos acordes 5 o powerd chords

A       C      G      E
Miro al pie de la escalera
F      G          A
No será fácil trepar
C       G          E
Trabajar la dura piedra
F        G       A
Mucho tiempo llevará

D    A Riff2      G      E  Riff3
Aprendiz   ,    fuego y sal

D-B   C-A  B-F    E (Palanca)
ángeles y diablos ven

Riff1
Quien Llegara.............

A        C      G      E
Por amor vine a esta tierra

improvizacion
Mi deber es continuar

improvizacion
Siento la naturaleza

improvizacion          Riff 4
Agua azul de la hermandad

D    A Riff2      G      E  Riff3
Aprendiz   ,    fuego y sal

D-B   C-A  B-F    E (Palanca)
ángeles y diablos ven

Riff1
Quien Llegara..............

Solo

A     C      G      E
Oro y pan es mi trabajo

Improvizacion
Agua de mi corazón

Improvizacion
Se que Dios esta a mi lado

Improvizacion        Riff 4(va otra cosa pero es lo mismo)
Con la fuerza del león

D    A Riff 2  G    E Riff 3
Aprendiz,     hermandad

D-B   C-A  B-F    E (Palanca) Riff 5
Signo de lo universal

improvizacion
Aprendiz, fuego y sal

improvizacion
ángeles y diablos ven

Riff 1
Quien llegara....


Ultimo solo

Introduccion

Final



*Riff 2            *Riff 4              *Riff 3
----------------|--------------------|---------------------------|
-------1--------|--------------------|---------------------------|EL RIFF 4
---------2~~----|--5-2---------------|-12b14repick-12-9----------|NO SE SI ESTA BIEN PORQUE LA
----------------|------5-2-----------|------------------12-10----|GUITARRA TIENE MUCHA DISTORCION
-0---3----------|----------5-3-5-3---|------------------------12-|
----------------|-------------5---5--|---------------------------|
*Riff 5                      *Final
-----------------        |------------------|
-----------------        |------------------|
----------4------        |------------------|
-------3-6-------        |-7-7-7--7--x-----|
----2-5----------        |-7-7-7--7--x-----|
-0-4-------------        |-5-5-5--5--x-----|


*Improviazacion sobre estrofa 2 y 3

Mi Deber es coontinuar   Siento la naturaleza      agua azul de la hermandad
-----------------------|--------------------------|---------------------------|
-----------------------|--------------------------|---------------------------|
-----------------------|--7/9-7-5-7b9r7-5---------|---------------------------|
-3----5-7--------------|------------------8b10-9-2|-3-------5----------7------|
-3----5-7--------5-----|-------------------------2|-3---0---5----------7------|
-1----3-5--7---8-------|-------------------------0|-1-------3--0-------5------|

*Improvizacion sobre ultimo estribillo

 Aprendiz     Fuego   y   sal    Angeles y diablos ven quien llegara
--------------------------------|-------------------------------------------|
---20b-20b-20b-20b-20~~----17~~-|-------------------------------------------|
-7----------------------18b-----|7-----5--4------------2-2-2-2-2-Riff 1-----|
-7------------------------------|7-----5--4--3-----2------------------------|
-5------------------------------|5-----3--2--3-----2------------------------|
--------------------------------|--7----5----1-----0------------------------|




======================================================================================
Solo - W. Giardino
======================================================================================
Introduccion

|---------------------------------------------------x3|
|---------------------------------------------------
|---------------------------------------------------
|---------------------------------------------------
|---------------------------------------------------
|--0-0-0-3-0-0-5-0-0-5-6-7--0-0-0-3-0-0-7-6-5-6-5-3-

                         Pm................(disminuido)............................
------------------------------------------------------------------------------------|
------------------------------------------------------------------------------------|
-----------------------------?-?-?-?-?-?-?-?-?-?-?-?-?-?-?-?------------------------|
------------------------------------------------------------------------------------|
------------------------------------------------------------------------------------|
-0-0-0-3-0-0-5-0-0-5-6-7------------------------------------------------------------|



Parte I

|---8-5---5-8-5-8-7-5-4h7p4---4-7-4-4-5-7-8-5---5-8-5-5-7-8-10-7---7-10-7-7-8-10------
|o-----5-5-----5-----------5-5-----5---------5-5-----5----------8-8------8------------
|-------5-------------------4-----------------5------------------7--------------------
|-------------------------------------------------------------------------------------
|o------------------------------------------------------------------------------------
|-------------------------------------------------------------------------------------

-12-8-----8-12-8--12-10-8-7h10p7---7-10-7-10-8-7-5h8p5---5-8-5-8-7-5-4h7p4-4-----------|
-----10-10------10--------------8-8------8------------5-5-----5-----------6-6-5br~~~--o|
-------9-------------------------7---------------------5-------------------------------|
---------------------------------------------------------------------------------------|
--------------------------------------------------------------------------------------o|
---------------------------------------------------------------------------------------|



Parte II

----------------------------------------------------------------------------------
------6---------------------------------------------------------------------------
-5b(7)--7b(9)--5b(7)-4~-5-7-5p4----10~~-12b(14)r12p10h12p109----7-7b(9)r7p5h7p5--
-------------------------------7-------------------------------10-----------------
----------------------------------------------------------------------------------
----------------------------------------------------------------------------------

-----------------------------------|la última nota es
-----------------------------------|con mucha distorción
-4h5p42h4p2-1-1-------------------|y palanca
--------------3-3-2-2--------------|
-------------------5---------------|
----------------------0vvv(palanca)|



Parte III

Divicion a

-(15/17-17-20)x6-15/17-17-----17--------17---------------------------------------------|
-------------------------20-17--20-19-17-----------------------------------------------|
------------------------------------------20-19-17------------17--20-19-17--19-17v~v---|
--------------------------------------------------19-17--17-19------------19-----------|
-------------------------------------------------------19------------------------------|
---------------------------------------------------------------------------------------|

Divicion b

----------------17-15--17-----------------------------------------------------------------
-18-17-----17-18-----18--18-17-15---------------------------------------------------------
------14h17----------------------17-16-14-12h14p12-9--10AHb~--9---------------------------
----------------------------------------------------10---------12-10-12-10-12-10-9-10-9---
------------------------------------------------------------------------------------------
------------------------------------------------------------------------------------------

-------------------------------------------|
-------------------------------------------|
-------------------------------------------|
---9---------------------------------------|
-12-12-11h12p11--11------------------------|
---------------13--13-12-10brb~~-----------|


Divicion c
                    Pm..............
----------------------------------------------------------------------------------------|
-------------------------------------------------------10-------------------------------|
---------------------------------------------------------12-9---------------------------|
-12b14-12b14-10------------------------12b-10-12b14rp14------12-10v---------------------|
----------------12~-------10------10-12-------------------------------------------------|
---------------------11-12---11-12------------------------------------------------------|




================================================================================================
Ultimo Solo
================================================================================================

-----------------------------------------------------------------------------------------------
-----------------------------------11----------------------------------------------------------
-------15-12--15-12--15-12--15-12----12-15-12b15-----------------------------------------------
-12b15------15-----15-----15-----15--------------14-13-12---12---------------12----------------
----------------------------------------------------------15--12-15-12--15-12--15~~------------
----------------------------------------------------------------------15-----------------------

-----------------------------------------------------------------------------------------------
-----------11--------------------11---------------------------------------------13-16-15-13----
--12b14rp14--12b14rp14--12b14rp14--12b14rp14--12b14rp14-12-12b14-12b14rp14-12-14-----------14--
-----------------------------------------------------------------------------------------------
-----------------------------------------------------------------------------------------------
-----------------------------------------------------------------------------------------------

--------------------------------15--15---15---15---15---15--------|Aca deja estirado el bending
-15--13--15b16-15b16-15b16-15b16--rp16-rp16-rp16-rp16-rp16--------|y cuando hace el repick lo
---14-------------------------------------------------------------|toca junto con el 15 de la 1ra
------------------------------------------------------------------|cuerda
------------------------------------------------------------------|
------------------------------------------------------------------|
Calificar esta versión:
Aviso: Este fichero es trabajo propio de su transcriptor y representa su interpretación personal de la canción. El material contenido en esta página es para exclusivo uso privado, por lo que se prohibe su reproducción o retransmisión, así como su uso para fines comerciales.
Más versiones de Alquimia, Walter Giardino
Alquimia
tablatura
Alquimia (ver 2)
tablatura
Descubre más canciones de Walter Giardino