Presente, Vox Dei (tablatura) (ver 2)

Autor: Anónimo | 28726 visualizaciones



Gente!!
Esta es mi primera transcripcion,espero que les sirva.
Los acordes estan puestos a tiempo en toda la cancion,
tanto en los solos como en la letra del tema.
Un abrazo!!!!


Intro:


      C            G
e|---------------------------------------|
B|----------13-15--15b17--15p13--15p13---|
G|----12-14------------------------------|
D|---------------------------------------|
A|---------------------------------------|
E|---------------------------------------|


      Am                  Em
e|----15b17--15b17br15-------------------|
B|------------------------13-------13----|
G|------------------------------14-------|
D|---------------------------------------|
A|---------------------------------------|
E|---------------------------------------|


    F              Em
e|---------------------------------------|
B|--15-13----13----13-15p13----15p13-----|
G|--------14----14----------14-------14--|
D|---------------------------------------|
A|---------------------------------------|
E|---------------------------------------|


         F                       G
e|--------------------------------------------------------|
B|-13-15-15p13----13-15p13----13-15b17--15-13-15p13-130--|
G|-------------14----------14-----------------------------|
D|--------------------------------------------------------|
A|--------------------------------------------------------|
E|--------------------------------------------------------|


Verso 1:


C       G             Am            Em
Todo concluye al fin nada puede escapar
F       Em          F       G
todo tiene un final todo termina.


Verso 2:


C        G            Am           Em
Tengo que comprender no es eterna la vida
F          Em         F      G
el llanto en la risa allí termina.


Pre-Coro:


C       G         Am         Em
Creía que el amor no tenia medidas
F       Em        F       G
o dejas de querer tal vez a otra mujer.



Coro:



C                G
Y olvidé aquello que una vez pensaba
    Am              Em
que nunca acabaría nunca acabaría
F         Em          G
pero sin embargo terminó.


C                 G
Todo me demuestra que al final de cuentas
  Am               Em
termino cada día empiezo cada día
F             Em             G
creyendo en mañana fracaso hoy.



Verso 3:


C        G            Am           Em
No puedo yo entender si es asi la verdad
F       Em        F          G
de que vale ganar si despues perdere.


Verso 4:


C       G        Am          Em
Inútil es pelear no puedo detenerlo
F       Em        F         G
lo que hoy empecé no sera eterno.


Pre-Coro:


C       G         Am         Em
Creía que el amor no tenia medidas
F       Em        F       G
o dejas de querer tal vez a otra mujer.



Coro:



C                G
Y olvidé aquello que una vez pensaba
    Am              Em
que nunca acabaría nunca acabaría
F         Em          G
pero sin embargo terminó.


C                 G
Todo me demuestra que al final de cuentas
  Am               Em
termino cada día empiezo cada día
F             Em             G
creyendo en mañana fracaso hoy.



Puente:



C          Am  F         G
Cuanta verdad hay en vivir
C          Am
solamente solamente
     F              G
el momento en que estas
             C   G   Am   G
si el presente...
F      Em       G
el presente y nada mas.



Coro:



C                 G
Todo me demuestra que al final de cuentas
  Am               Em
termino cada día empiezo cada día
F             Em             G
creyendo en mañana fracaso hoy.


C                 G
Todo me demuestra que al final de cuentas
  Am               Em
termino cada día empiezo cada día
F             Em             G
creyendo en mañana fracaso hoy.


C                 G
Todo me demuestra que al final de cuentas
  Am               Em
termino cada día empiezo cada día
F             Em             G
creyendo en mañana fracaso hoy.


C                 G
Todo me demuestra que al final de cuentas
  Am               Em
termino cada día empiezo cada día
F             Em             G
creyendo en mañana fracaso hoy.



Solo Final:


    C            G
    LA           LA LA
e|-------------------------------------|
B|--------13-15--15b17--15p13--15p13---|
G|--12-14------------------------------|
D|-------------------------------------|
A|-------------------------------------|
E|-------------------------------------|


     Am                  Em
  LA LA
e|---15b17--15b17br15---------------------|
B|-----------------------13-------13-15---|
G|-----------------------------14---------|
D|----------------------------------------|
A|----------------------------------------|
E|----------------------------------------|


    F             Em
    LA            LaLa     LaLaLa
e|--------------------------------------|
B|--15b17--15-13--15b17---15-13-15-13---|
G|--------------------------------------|
D|--------------------------------------|
A|--------------------------------------|
E|--------------------------------------|


    G
e|---------------------------------------|
B|--15b16---13-15p13----15-13----13------|
G|-------------------14-------14-----14--|
D|---------------------------------------|
A|---------------------------------------|
E|---------------------------------------|


     C            G
     LA           LA LA
e|--------------------------------------|
B|---13-15-13-----15b17---15-13-15-13---|
G|------------14------------------------|
D|--------------------------------------|
A|--------------------------------------|
E|--------------------------------------|


     Am                  Em
  LA LA
e|---15b17----15------------------------|
B|-----------------------13------13-15--|
G|---------------------------14---------|
D|--------------------------------------|
A|--------------------------------------|
E|--------------------------------------|


    F                 Em
    LA                LaLa     LaLaLa
e|----------------------------------------|
B|--15b17---15b17-15--x--13---------13-15-|
G|------------------------------14--------|
D|----------------------------------------|
A|----------------------------------------|
E|----------------------------------------|


     G
e|------------------------------------|
B|---------13-15---13----------13-15--|
G|---12-14-----------------14---------|
D|------------------------------------|
A|------------------------------------|
E|------------------------------------|


     C             G
     LA            LA LA
e|-----------------15b17------15-12-----|
B|-------13-----------------------------|
G|---14-----(14)------------------------|
D|--------------------------------------|
A|--------------------------------------|
E|--------------------------------------|


     Am          Em
  LA LA
e|---15b17br15---15br17-15---15br17-15--|
B|--------------------------------------|
G|--------------------------------------|
D|--------------------------------------|
A|--------------------------------------|
E|--------------------------------------|


  F        Em                    G
  LA       LaLa     LaLaLa
|-15b17----15b17----15b16br15----15----12-15-12----12---------------------|
|-----------------------------------------------15----15-13----------13s0-|
|-----------------------------------------------------------14-12-14------|
|-------------------------------------------------------------------------|
|-------------------------------------------------------------------------|
|-------------------------------------------------------------------------|



LA     LaLa   LaLaLa....





Calificar esta versión:
Aviso: Este fichero es trabajo propio de su transcriptor y representa su interpretación personal de la canción. El material contenido en esta página es para exclusivo uso privado, por lo que se prohibe su reproducción o retransmisión, así como su uso para fines comerciales.
Más versiones de Presente, Vox Dei
Presente
acordes
Presente (ver 2)
acordes
Presente (ver 3)
acordes
Presente
tablatura
Presente (ver 2)
tablatura
Presente
teclado
Descubre más canciones de Vox Dei