Moises, Vox Dei (tablatura)

Autor: Anónimo | 24967 visualizaciones



MOISES

Intro: [D]

[D]
Niño que flotas en las aguas, niño, niño, niño mío.

Niño que te salvan de las aguas ¿por qué te salvan, niño mío?
[D]
¿De dónde traes ese niño?, ¿de dónde lo traes?, dímelo río.

Aguas frescas, niño, niño; río mío, tibio niño.

[D]
¿Por qué te salvan, niño del río?, es que quizás no debas morir.

¿Por qué te salvan, niño del río?, es que quizás debas vivir.
[D]
Aguas frescas para un niño, aguas frescas de este río.

Aguas frescas para un niño, aguas frescas de este río.

Inter: [D]x6 D-C9 D-D D-C9 D-C9

D                             C9
 Ahora que eres hombre yo te llamo para darte
D                            C9
 un grande mensaje que a la gente debes dar.
D                            C9
 Ve y vuelve pronto que te espero para hablarte;
D                           C9
 ya llegó el momento, nos tenemos que encontrar.

D C9

D                          C9
 No debes buscarme, yo estaré en cualquier parte.
D                 C9
 Fafafafafafa fafafafa fafafa
D                    C9
 Fafafafafafafafafafafa fafafafa
D                           C9
 Ya llegó el momento, nos tenemos que encontrar.

Inter: [D-C9]x4 [D]x4   
        D Eº Bm G    D Eº Bm Em
        D-Eº    Bm-Cº   C#m-Dº  D#m-Eº 
        Fm-F#º  Gm-G#º  Am-A#º  Bm
        E-G-A

  D        G     D           G     D           C/G      D
¡Sol que quiero verte, que quiero verte, y te voy a buscar!
  D        G     D         G     D           C/G        D
¡Sol que quiero oírte, y quiero oírte, y te voy a escuchar!
  D        G     D           G     D           C/G      D
¡Sol que quiero verte, que quiero verte, y te voy a buscar!
  D        G     D         G     D           C/G        D
¡Sol que quiero oírte, y quiero oírte, y te voy a escuchar!
G-D                       G-D
   Camino, camino, camino... 
G D  G D  G D  C/G
 NOTA: TODOS [D] VARIAN ENTRE D, Dsus4, Dsus9 Y D5


........................................................................................
INTRO:

 [D]                       ^^^           ^^^     ^^^^^^^^^^^^^^^
*-----------*---------2-3/5----*----3-2-3---2-3-2-0-2-3-2-3-2---*
*-3---------*------------------*------------------------------3-*
*-2---------*-2----------------*--------------------------------*
*-0---------*-0----------------*--------------------------------*
*-----------*------------------*--------------------------------*
*-----------*------------------*--------------------------------*

   ^^^^^^^^^^^^^^^^^^^^^^^^^^^^^^^^^^^^^^^^^^^^^^^^^^^^^^^^^^^^^^^^
*-8-7-8-7-8-7-8-7--8-7-8-7-8-7-8-7--8-7-8-7-8-7-8-7--8-7-8-7-8-7-8-7-*
*--------------------------------------------------------------------*
*--------------------------------------------------------------------*
*--------------------------------------------------------------------*
*--------------------------------------------------------------------*
*--------------------------------------------------------------------*

   ^^^^^^^^^                          ^^^^^^^^^^^^^^^^^^^^^^^^^^^^^^^
*-2-3-2-0-2-3--*-3-2-3-5-3-2-3-2---*-5-3-2-3-5-3-2-3-5-3-2-3-5-3-2-3-5-*
*--------------*-----------------3-*-----------------------------------*
*--------------*-------------------*-----------------------------------*
*--------------*-------------------*-----------------------------------*
*--------------*-------------------*-----------------------------------*
*--------------*-------------------*-----------------------------------*

   ^^^^^^^^^^^^^^^^^^^^^^^^^^^^^^^^^^^^^^^
*-5-3-2-3-5-3-2-3-5-3-2-3-5-3-2-3-5-3-2-3-5-*
*-------------------------------------------*
*-------------------------------------------*
*-------------------------------------------*
*-------------------------------------------*
*-------------------------------------------*

   ^^^^^^^^^^^^^^^^^^^^^^^^^^^^^^^^^^^^^^^                   ^^^
*-5-3-2-3-5-3-2-3-5-3-2-3-5-3-2-3-5-3-2-3-5-*--12-14-15---*-15-14-12-14--*
*-------------------------------------------*-------------*--------------*
*-------------------------------------------*-------------*--------------*
*-------------------------------------------*-------------*--------------*
*-------------------------------------------*-------------*--------------*
*-------------------------------------------*-------------*--------------*

   ^^^^^^^     ^^^^^       ^^^^^^^^^^^^^       ^^^^^^^^^^^^^^^^^^^^^
*-8-7-8-7-8---8-7-8-7--*--8-7-8-7-8-7-8-7--*--7-8-7-8-7-8-753-2-3-2--*
*----------------------*-------------------*---------------------------*
*----------------------*-------------------*---------------------------*
*----------------------*-------------------*---------------------------*
*----------------------*-------------------*---------------------------*
*----------------------*-------------------*---------------------------*

TONOS DE INTER:

   D  Eº  Bm  Cº  C#m  Dº  D#m  Eº  Fm  F#º  Gm  G#º  Am  A#º  Bm
*--2--3---2---5----4---7----6---9---8---11---10--13---12--15---14--*
*--3--2---3---4----5---6----7---8---9---10---11--12---13--14---15--*
*--2--3---4---5----6---7----8---9---10--11---12--13---14--15---16--*
*--0--2---4---4----6---6----8---8---10--10---12--12---14--14---16--*
*--------------------------------------------------------------14--*
*------------------------------------------------------------------*

Fuente original: LaCuerda
Colaborador original: Sebastián Griz [[email protected]]





Calificar esta versión:
Aviso: Este fichero es trabajo propio de su transcriptor y representa su interpretación personal de la canción. El material contenido en esta página es para exclusivo uso privado, por lo que se prohibe su reproducción o retransmisión, así como su uso para fines comerciales.
Más versiones de Moises, Vox Dei
Moises
acordes
Moises
tablatura
Descubre más canciones de Vox Dei