Genesis, Vox Dei (tablatura)

Autor: Anónimo | 20879 visualizaciones



Intro: E5  Riff


Él era el Principio y de la noche hizo luz, 
C                B                   Em
  y fue el cielo   y esto que está aquí.

Em
Hubo tierra, agua, sangre, flores,

todo eso y también tiempo.

Claramente digo que ese fue el mundo del hombre.
C            B     
  Y así fue,   fue así.


mírame si quieres verte porque imagen mía sos.
C                B            Em
  Ya lo hiciste:   vive solo hoy.

Em
Hubo pueblos y países y hubo hombres con memoria.

Claramente digo que este fue el mundo del hombre.
C               B             Em
  Y se contaron   todas estas cosas,
C            B      
  y fue así,   fue así.

Solo: x 20
       Em

........................................................................................
Intro: E5

---------------------------------------------------
--------5---------improvisación con este acorde----
--------4------------------------------------------
--------2------------------------------------------
---------------------------------------------------
---------------------------------------------------

Riff:

-------------*-------------*-------------*-------------*----------------*-------------*
-------------*-------------*-------------*-------------*----------------*-------------*
-------------*-------------*-------------*-------------*----------------*-------------*
---/-9-------*---/-9-------*---/-9-------*---/-9-------*------/-9-------*---/-9-------*
---/10-------*---/10-------*---/10-------*---/10-------*------/10-------*---/10-------*
-------------*-------------*-------------*-------------*----------------*-------------*
             *             *             *             *                *             *
-------------*-------------*-------------*-------------*----------------*-------------*
-------------*-------------*-------------*-------------*--^^^-----------*-------------*
-----------2-*-----------2-*-----------2-*-------------*-5-6-7--------2-*-----------2-*
-0-------5---*-0-------5---*-0-------5---*-0-----------*------------5---*-0-------5---*

-------------*-------------*-------------*-------------*--
-------------*-------------*-------------*-------------*--
-------------*-------------*-------------*-------------*--
---/-9-------*---/-9-------*---/-9-------*---/-9-------*--
---/10-------*---/10-------*---/10-------*---/10-------*--
-------------*-------------*-------------*-------------*--
             *             *             *             *  
-------------*-------------*-------------*-------------*--
-------------*-------------*-------------*-------------*--
-------5-6-7-*------<7>----*-------------*-----------2-*--
-0-----------*-0-----<7>-0-*-0------7-0-*-0-------5---*-0
             *             *             *             *  
-------------*-------------*-------------*-------------*--
-------------*-------------*-------------*-------------*--
---/12-------*---/12-------*---/12-------*---/12-------*--
---/-9-------*---/-9-------*---/-9-------*---/-9-------*--
-------------*-------------*-------------*-------------*--
-------------*-------------*-------------*-------------*--

Solo:

*---7--------*--12---------*-15-14-12----*-12----------*---7--------*--12---------* 
*---8--------*-------------*-------------*----12-------*---8--------*-------------*
*---9--------*--------9----*-------------*-------9-----*---9--------*--------9----*
*---9--------*-------------*-------------*-------------*---9--------*-------------*
*------------*-------------*-------------*-------------*------------*-------------*
*------------*-------------*-------------*-------------*------------*-------------*

*-15-14-12----*-12----------*---12-------12-*-10-------10-*-9--------9-*-7-----------*
*-------------*----12-------*---------------*-------------*------------*-------------*
*-------------*-------9-----*---------------*-------------*------------*-------------*
*-------------*-------------*---------------*-------------*------------*-------------*
*-------------*-------------*---------------*-------------*------------*-------------*
*-------------*-------------*---------------*-------------*------------*-------------*

*---12-------12-*-10-------10-*-9--------9-*-7-----------*
*---------------*-------------*------------*-------------*
*---------------*-------------*------------*-------------*
*---------------*-------------*------------*-------------*
*---------------*-------------*------------*-------------*
*---------------*-------------*------------*-------------*

*-----------------------------------------*
*-----------------------------------------*
**---------------------------------------**
**---------------------------------------** x5
*-----------------------------------------*
*--0-0-0-0---0-0-0-0---0-0-0-0---0-0-0-0--*

*---12-------12-*-10-------10-*-9-----------*-------------*---12-------12-*
*---------------*-------------*-------12-10-*-12----------*---------------*
*---------------*-------------*-------------*-------------*---------------*
*---------------*-------------*-------------*-------------*---------------*
*---------------*-------------*-------------*-------------*---------------*
*---------------*-------------*-------------*-------------*---------------*

*-10-------10-*-9-----------*-------------*
*-------------*-------12-10-*-12----------*
*-------------*-------------*-------------*
*-------------*-------------*-------------*
*-------------*-------------*-------------*
*-------------*-------------*-------------*

*-------------*---------------------------*---------------------*
*-------------*--^^^^---------------------*--^^^^---------------*
*-------12-14-*-14br14--12-14-12-------12-*-14br14--12----12-14-*
*---/14-------*------------------14-14----*------------14-------*
*-------------*---------------------------*---------------------*
*-------------*---------------------------*---------------------*

*--^^^^----------12------------------------*--------------------------*
*-15br15-12----------------12----12-14-14--*--------------------------*
*------------14b----r14-14----14-----------*-14br14-12-14-12-------12-*
*------------------------------------------*-----------------14-14----*
*------------------------------------------*--------------------------*
*------------------------------------------*--------------------------*

*--^^^^------^^^^--12-15br15-12-----*--^^^^---------12-*
*-15br15-12-15br15--------------15b-*-15br15-12--------*
*-----------------------------------*-----------14b----*
*-----------------------------------*------------------*
*-----------------------------------*------------------*
*-----------------------------------*------------------*

*----------------------------------------------*-------------------------*
*-----------^^^^^^-----------------------------*-------------------------*
*-14-12-14-12-14-12----12----------------------*-------------------------*
*-------------------14----14-12----------------*-------------------12----*
*-------------------------------14-13-12-10----*-------12-14-12-14----14-*
*-------------------------------------------12-*-12-15-------------------*

*-------------------------------*-------------------*-------------------*
*--------------------^^^^^^-----*--------------^^^--*--------------^^^--*
*-------------12-14-12-14-12----*----12-14-12-14-12-*----12-14-12-14-12-*
*-12-14-12-14----------------14-*-14----------------*-14----------------*
*-------------------------------*-------------------*-------------------*
*-------------------------------*-------------------*-------------------*

*-------------------*-------------------*
*--------------^^^--*--------------^^^--*
*----12-14-12-14-12-*----12-14-12-14-12-*
*-14----------------*-14----------------*
*-------------------*-------------------*
*-------------------*-------------------*

*-------------------------------------------------*----------------------------------*
*-------------------------------------------------*-----^^^------------^^^^^^--------*
*----12----12-14b14-14-14-14-14-14-14-14-14-14r14-*-12-14-12----12-14-12-14-12----12-*
*-14----14----------------------------------------*----------14----------------14----*
*-------------------------------------------------*----------------------------------*
*-------------------------------------------------*----------------------------------*
                                                                ^^^^^^
*------------------------------------*-------------*-----17br17-15-17-15----*
*----------------------------^^^^^^--*-------------*-15b-----------------17-*
*-14b-14b-14b-14b-r14-12-14-12-14-12-*-14-12-12-14-*------------------------*
*------------------------------------*-------------*------------------------*
*------------------------------------*-------------*------------------------*
*------------------------------------*-------------*------------------------*

*--^^^---------------*--^^^--------------*--^^^-----------17-17-17-17-*
*-17-15----15-17-17b-*-17-15----15-17-17-*-17-15----15-17-------------*
*-------16-----------*-------16----------*-------16-------------------*
*--------------------*-------------------*----------------------------*
*--------------------*-------------------*----------------------------*
*--------------------*-------------------*----------------------------*
                               ^^^^^^
-17b-17b-17b-17b-17br17-15-17-15-17-15----*--^^^--------------*--^^^------------------*
---------------------------------------17-*-17-15----15-17-17-*-17-15----15-17-17b-17-*
------------------------------------------*-------16----------*-------16--------------*
------------------------------------------*-------------------*-----------------------*
------------------------------------------*-------------------*-----------------------*
------------------------------------------*-------------------*-----------------------*

*---------^^^-----------*
*-17b-17-17-15----17-17-*
*--------------16-------*
*-----------------------*
*-----------------------*
*-----------------------*

*-12---12-*-10---10-*-9--------*-------*-12---12-*-14---14-*
*---------*---------*----12-10-/-12----*---------*---------*
*---------*---------*----------*-------*---------*---------*
*---------*---------*----------*-------*---------*---------*
*---------*---------*----------*-------*---------*---------*
*---------*---------*----------*-------*---------*---------*

*-15---15-*-15---12-*-12---12-*-14---14-*-15---15-*---------**
*---------*---------*---------*---------*---------*---------**
*---------*---------*---------*---------*---------*---------**
*---------*---------*---------*---------*---------*--2---2--**
*---------*---------*---------*---------*---------*--2---2--**
*---------*---------*---------*---------*---------*--0---0--**

Fuente original: LaCuerda
Colaborador original: Sebastián Griz [[email protected]]





Calificar esta versión:
Aviso: Este fichero es trabajo propio de su transcriptor y representa su interpretación personal de la canción. El material contenido en esta página es para exclusivo uso privado, por lo que se prohibe su reproducción o retransmisión, así como su uso para fines comerciales.
Más versiones de Genesis, Vox Dei
Genesis
acordes
Genesis
tablatura
Genesis (ver 2)
tablatura
Descubre más canciones de Vox Dei