Cristo, Vox Dei (tablatura)

Autor: Anónimo | 43517 visualizaciones



Afinar en D:

D|-
A|-
F|-
C|-
G|-
D|-

Intro:

  Am                  C
|--------5----5.----|-----------------|
|----5.--5-5--5.----|----5.-------5.--|
|----5.--5-5--5.----|-5--5.--5-5--5.--|
|-7--7.--7-7--7.----|-5--5.--5-5--5.--|
|-7---------------0-|-3------3-3------|
|-5-----------------|-----------------|

  D                 F
|-----------------|----------------------|
|----7.-------7.--|-----10.---------10.--|
|-7--7.--7-7--7.--|-10--10.--10-10--10.--|
|-7--7.--7-7--7.--|-10--10.--10-10--10.--|
|-5------5-5------|-8--------8--8--------|
|-----------------|----------------------|

  Am                  C
|--------5----5.----|-----------------|
|----5.--5-5--5.----|----5.-------5.--|
|----5.--5-5--5.----|-5--5.--5-5--5.--|
|-7--7.--7-7--7.----|-5--5.--5-5--5.--|
|-7---------------0-|-3------3-3------|
|-5-----------------|-----------------|
|
|-------------------|-----------------|
|-13----------------|-(13)------------|
|-------------------|-----------------|
|-------------------|-----------------|
|-------------------|-----------------|
|-------------------|-----------------|

  D                   F
|-----------------|----------------------|
|----7.-------7.--|-----10.---------10.--|
|-7--7.--7-7--7.--|-10--10.--10-10--10.--|
|-7--7.--7-7--7.--|-10--10.--10-10--10.--|
|-5------5-5------|-8--------8--8--------|
|-----------------|----------------------|
|
|-----------------|----------------------|
|-(13)------------|-(13)--------------15-|
|-----------------|----------------------|
|-----------------|----------------------|
|-----------------|----------------------|
|-----------------|----------------------|

  Am                                 C
|----------5-------5.----|-------------------|
|------5.--5-5-----5.----|------5.-------5.--|
|------5.--5-5-----5.----|-5----5.--5-5--5.--|
|-7----7.--7-7-----7.----|-5----5.--5-5--5.--|
|-7--------------------0-|-3--------3-3------|
|-5----------------------|-------------------|
|
|------------------------|-------------------|
|-15-13----15-15-13---15-|-15-13-------------|
|------------------------|----------12/14----|
|------------------------|-------------------|
|------------------------|-------------------|
|------------------------|-------------------|

  D                   F
|-------------------|----------------------|
|------7.-------7.--|-----10.---------10.--|
|-7----7.--7-7--7.--|-10--10.--10-10--10.--|
|-7----7.--7-7--7.--|-10--10.--10-10--10.--|
|-5--------5-5------|-8--------8--8--------|
|-------------------|----------------------|
|
|-------------------|----------------------|
|--------13/15------|-13-------------------|
|-14/16-------------|----------------------|
|-------------------|----------------------|
|-------------------|----------------------|
|-------------------|----------------------|

  Am                                 C
|-------------------5-----5.----|--------------------------|
|---------------5.--5-5---5.----|----------5.----------5.--|
|---------------5.--5-5---5.----|-5--------5.---5--5---5.--|
|-7-------------7.--7-7---7.----|-5--------5.---5--5---5.--|
|-7---------------------------0-|-3-------------3--3-------|
|-5-----------------------------|--------------------------|
|
|-------------------------------|------------------------15-|
|-18-18-17-15----------------18-|-18-17-15------------------|
|-------------17---12-12/14-----|----------17---12-12/14----|
|-------------------------------|---------------------------|
|-------------------------------|---------------------------|
|-------------------------------|---------------------------|

  D                       F
|-----------------------|-------------------------------------|
|------7.-------7.------|-10-------10-------10-------10-------|
|-7----7.--7-7--7.------|-10-10-10-10-10-10-10-10-10-10-10-10-|
|-7----7.--7-7--7.------|-10-10-10-10-10-10-10-10-10-10-10-10-|
|-5--------5-5----------|----8--8-----8--8-----8--8-----8--8--|
|-----------------------|-------------------------------------|
|
|-15-13--------------17-|-(17)--------------------------------|
|---------17-17-15------|-------------------------------------|
|-----------------------|-------------------------------------|
|-----------------------|-------------------------------------|
|-----------------------|-------------------------------------|
|-----------------------|-------------------------------------|

Con Bajo y piano:

  Am                        C
|-17-19-20----------------|-------------------|
|-----------15-15-13---15-|-15-13-------------|
|-------------------------|----------12/14----|
|-------------------------|-------------------|
|-------------------------|-------------------|
|-------------------------|-------------------|

  D                        F
|-------------------------|--------------------|
|--------13/15------------|-13-----------------|
|-14/16-------------------|--------------------|
|-------------------------|--------------------|
|-------------------------|--------------------|
|-------------------------|--------------------|

  Am                    C
Aquí está el camino para el que quiere ver
  D               F
conoce la verdad, libre te hará.

   Am                        C
Oh grita a una montaña, y pídele que se eche al mar
     D                  F  Em  D   C       Am
si crees lo que dices, segu_____ro que se hará
    D               Am       D
Se hará, si si se hará
      Am     E
Oooooh  se hará

   Am                      C
Escucha mis palabras reconcíliate con vos
D                  F
solo debes amar, así como amo yo.

 Am                      C
Ahora caminemos, que hay mucho por andar,
D                    F Em  D   C     Am
ya vamos a estar senta_____dos y en paz

D                 Am        D
     después de andar
         Am                E
si si en paz, después de andar

Solo 1:

  E            Am
|---------15-|-16b18^^-16p15------------------------------------|
|------17----|---------------17-17p15------------15-15b17r15^^s-|
|------------|-------------------------17--14-17----------------|
|------------|--------------------------------------------------|
|------------|--------------------------------------------------|
|------------|--------------------------------------------------|

 C
|------------------------------15-|
|-----5-5b7r5---------------15----|
|-5-7---------7-5-7-7^^-----------|
|---------------------------------|
|---------------------------------|
|---------------------------------|

  D
|-16b18^^-16p15--------------------------|
|---------------17-17p15-----------15----|
|------------------------17--14-17----14-|
|----------------------------------------|
|----------------------------------------|
|----------------------------------------|

  F                                 Am
|----------------------------------|------------------|
|-----10-8-------------------------|------------------|
|-7b9------9-7/5^^^^-5-7-5---5-----|------------------|
|--------------------------7---7-5-|-7^^-7-5-5/7^^----|
|----------------------------------|------------------|
|----------------------------------|------------------|
                                    Final solo y empieza
                                    el solo de teclado

| C | D | F | Em | D | C | Am |

| D | Am | D | Am | E |

Am

Am                 Dm    Am Asus2 D
   Ya no habrá más calma.
Am                 Dm
   Ya empezó el final.
Am                      Dm
   Recuerda que sos mi amigo,
G                    C  C/B  Am  Am/G
   y que no me perderá_____s.
A7                 Dm
   Y te cerrarán caminos,
G                          C  C/B  Am  Am/G
   por decir lo que es verda_____d.
Am                     Dm
   Pero nunca estarás solo,
G                          C  C/B  Am  Am/G
   porque allí yo voy a esta___r.

| Am | E5 | G | D5 | x2

   Am                       E5
|-------------------------|-----------------------|
|*------------------------|-----------------------|
|-------------------------|-----------------------|
|----------------10-12-10-|-----------------------|
|*-13b15r13-12------------|-12-10-12--------------|
|-------------------------|-----------------------|

  G                         D5
|-------------------------|-----------------------|
|-------------------------|----------------------*|
|-------------------------|-----------------------|
|-------------13-12-10-12-|-13p12p10--------------|
|-13b15r13-12-------------|----------10-12-------*|
|-------------------------|-----------------------|

Am

Am           Dm    Am Asus2 D
   Llorarás amigo
Am            Dm
   y me buscarás
Am                        Dm
   será cuando yo me haya ido
G                     C  C/B  Am  Am/G
   a prepararte un luga_______r
A7                    Dm
   Pasará un poco de tiempo
G                C  C/B  Am  Am/G
   y ya no me verá_____s
Am                       Dm
   y otra vez pasará el tiempo
G                  C  C/B  Am  Am/G
   y a verme volverá_____s.

| Am | E5 | G | D5 | x2

   Am                       E5
|-------------------------|-----------------------|
|*------------------------|-----------------------|
|-------------------------|-----------------------|
|----------------10-12-10-|-----------------------|
|*-13b15r13-12------------|-12-10-12--------------|
|-------------------------|-----------------------|

  G                         D5
|-------------------------|-----------------------|
|-------------------------|----------------------*|
|-------------------------|-----------------------|
|-------------13-12-10-12-|-13p12p10--------------|
|-13b15r13-12-------------|----------10-12-------*|
|-------------------------|-----------------------|

Solo final (incompleto):

 Am            E5              G
|------------|---------------|-------15b17-------------|
|------13----|-15b17---15p13-|-15-17-------15p13h15-15-|
|---14----14-|---------------|-------------------------|
|------------|---------------|-------------------------|
|------------|---------------|-------------------------|
|------------|---------------|-------------------------|

 D5                       Am
|-----------------------|------------------|
|-15-13-----------------|-15b16^^^^(16)r15-|
|-------14-12-14-12^^---|------------------|
|-----------------------|------------------|
|-----------------------|------------------|
|-----------------------|------------------|

 E5                       G
|------------------------|-----------------------|
|-15b16r15b16^^^^(16)r15-|-15b16r15b16^^(16)r15--|
|------------------------|-----------------------|
|------------------------|-----------------------|
|------------------------|-----------------------|
|------------------------|-----------------------|

 D5                       Am
|-----------------------|-----------------------|
|-15-13-----------------|-----------------------|
|-------14-12-14-12^^---|-------------------14--|
|-----------------------|-----------------------|
|-----------------------|-----------------------|
|-----------------------|-----------------------|

 E5                  G
|------------------|-----------------------|
|-18b20---17-15----|-----------------------|
|---------------17-|-16b18^^---------------|
|------------------|-----------------------|
|------------------|-----------------------|
|------------------|-----------------------|

 D                             Am
|----------------------------|-----------------------|
|----------------------------|-----------------------|
|-12h14-12-------------------|-----------------------|
|----------14-12-10----------|--------------------10-|
|-------------------14-12-10-|-12--------10h12-10----|
|----------------------------|-----------------------|

 E5                       G
|-----------------------|-----------------------|
|-----------------------|-----------------------|
|-----------------------|-----------------------|
|-12b14-10h12-----------|-----------------------|
|-------------12-15-----|-14b16-12----12--------|
|-----------------------|----------15-----------|

 D5                       Am
|-----------------------|-----------------------|
|-----------------------|-----------------------|
|-----------------------|--------0--------------|
|-----------------------|--------12p10----------|
|-----------------------|-----------------------|
|-----------------------|-----------------------|

 E5                       G
|-----------------------|-------------------------|
|-----------------------|-------------------------|
|----------0------0-----|-------------------------|
|----------12p10--12p10-|-10-12-10-------10b11----|
|-----------------------|----------12-10-------12-|
|-----------------------|-------------------------|

 D5                       Am
|-----------------------|-----------------17-15-|
|-----------------------|--------------17-------|
|-----------------------|-----------------------|
|-----------------------|-----------------------|
|-12/14-12-10-----------|-----------------------|
|-------------12-10-----|-----------------------|

 E5                       G
|-16b17-----------------|----20b22--------------|
|-----------------------|-----------------------|
|-----------------------|-----------------------|
|-----------------------|-----------------------|
|-----------------------|-----------------------|
|-----------------------|-----------------------|

 D5                       Am
|-18p17-15-16-16b17-----|-----------------------|
|-----------------------|-----------------------|
|-----------------------|-----------------------|
|-----------------------|-----------------------|
|-----------------------|-----------------------|
|-----------------------|-----------------------|

 E5                       G
|-----------------------|-----------------------|
|-----------------------|-----------------------|
|-----------------------|-----------------------|
|-----------------------|-----------------------|
|-----------------------|-----------------------|
|-----------------------|-----------------------|

 D5                       Am
|-----------------------|-----------------------|
|-----------------------|-----------------------|
|-----------------------|----------------14^^^^-|
|-----------------------|-------------14--------|
|-----------------------|-----------------------|
|-----------------------|-----------------------|

 E5                       G
|-----------------------|-----------------------|
|---------13b15---------|-----15b17^^^^---------|
|-(14)^^^---------------|-----------------------|
|-----------------------|-----------------------|
|-----------------------|-----------------------|
|-----------------------|-----------------------|

 D5                   Am
|-------------------|-----------------------|
|-15-13----13-------|-----------------------|
|-------14----14-12-|-12/14-----------------|
|-------------------|---------------------x-|
|-------------------|---------------------x-|
|-------------------|-----------------------|

 E5                       G
|-----------------------|-----------------------|
|-----------------------|---13b15---------------|
|-----------------------|-----------------------|
|-x-x-x----x---x--------|-----------------------|
|-x-x-x----x---x--------|-----------------------|
|-----------------------|-----------------------|

 D5                       Am
|-----------------------|-----------------------|
|-----------------------|-----------------------|
|-----------------------|-----------------------|
|-----------------------|-----------------------|
|-----------------------|-----------------------|
|-----------------------|-----------------------|

 E5                       G
|-----------------------|-----------------------|
|---15b17-(17)r15b17r15-|-(15)^^^^---------13---|
|-----------------------|-----------------------|
|-----------------------|-----------------------|
|-----------------------|-----------------------|
|-----------------------|-----------------------|

 D5                       Am
|--------------------|---15b17r15b17---------|
|-13-13-13---13------|-----------------------|
|---------------14s--|-----------------------|
|--------------------|-----------------------|
|--------------------|-----------------------|
|--------------------|-----------------------|

Sonido de trueno y algunos sonidos mas hasta que el tema acaba.


Notación:

n/m slide de traste n a m
p   pull off
h   hammer on
B   bend
r   realise
ns  slide de n a 0


Hecho por Luis Loayza
LA Paz - Bolivia
Comentarios y correcciones:
[email protected]





Calificar esta versión:
Aviso: Este fichero es trabajo propio de su transcriptor y representa su interpretación personal de la canción. El material contenido en esta página es para exclusivo uso privado, por lo que se prohibe su reproducción o retransmisión, así como su uso para fines comerciales.
Más versiones de Cristo, Vox Dei
Cristo
acordes
Cristo (ver 2)
acordes
Cristo
tablatura
Descubre más canciones de Vox Dei