El Infierno No Puede Esperar, Violadores (acordes)

Autor: franco maxi | 43381 visualizaciones

amcdemfg
LOS Viloladores   EL INFIERNO NO PUEDE ESPERAR 

intro:
[I]
   G  G G C  C C G G G C
e:-3--3-3-0--0-0-3-3-3-0--------
B:-3--3-3-1--1-1-3-3-3-1--------
G:-4--4-4-0--0-0-4-4-4-0-------- las notas que estan entre
D:-5--5-5-2--2-2-5-5-5-2---[2]-- parentesis las toca el bajo
A:-5--5-5-3--3-3-5-5-5-3-[3]-[3]
E:-3--3-3--------3-3-3----------

acordes:
[A]
   G        F  C
e:-3--3-----1--0-
B:-3----3---1--1-
G:-4--------2--0-
D:-5--------3--2-
A:-5--------3--3-
E:-3--------1----

[B]
   Am      C      G                     Am      C      D
e:-0---0---3--3---3--3-3----------------0---0---3--3---0-0-3-3-5-5-
B:-1--1-1--5-5-5--3--3-3----------------1--1-1--5-5-5--2-2-2-2-2-2-
G:-2-------5------4--4-4----------------2-------5------3-3-3-3-3-3-
D:-2-------5------5--5-5----------------2-------5------0-0-0-0-0-0-
A:-0-------3------5--5-5----------2-2---0-------3------------------
E:----------------3--3-3--3-3-5-5-----3-------------------------

[C]
   G       C   D   G       C   D   Em  C   D
e:-3-3-3-3-3-3-5-5-3-3-3-3-3-3-5-5-7-7-3-3-5-5-5-5---
B:-3-3-3-3-5-5-7-7-3-3-3-3-5-5-7-7-8-8-5-5-7-7-7-7---
G:-4-4-4-4-5-5-7-7-4-4-4-4-5-5-7-7-9-9-5-5-7-7-7-7---
D:-5-5-5-5-5-5-7-7-5-5-5-5-5-5-7-7-9-9-5-5-7-7-7-7---
A:-5-5-5-5-3-3-5-5-5-5-5-5-3-3-5-5-7-7-3-3-5-5-5-5---
E:-3-3-3-3---------3-3-3-3---------------------------


[I]x4
[A]                                [A]
Nunca fui bueno para obedecer
[A]                                [A]
Nunca fui amable, jovial y cortes
[B]
No me importa la distinción,
ni tampoco la resurrección.
Por mas que me quieran cambiar,
eso nunca lo van a lograr.

[A]                                [A]
No soy rebelde a domesticar.
[A]                                [A]
Los mandamientos no me mandaran.
[B]
No me importa la compresión,
solo quiero la insumisión.
Por mas que me quieran cambiar,
eso nunca lo van a lograr.
[C]
En el infierno yo tengo un lugar.
En el infierno prefiero estar.
Ya ves, el infierno no puede esperar.

[I]x2
[A]                                [A]
Nunca fui parte de esta estupidez.
[A]                                [A]
Y del rebaño lejos estaré.
[B]
No me importa la redención,
ni tampoco mi crucifixión.
Por mas que me quieran cambiar,
eso nunca lo van a lograr.

[C]
En el infierno yo tengo un lugar.
En el infierno prefiero estar.
Ya ves, el infierno no puede esperar.

[C]
En el infierno yo tengo un lugar.
En el infierno prefiero estar.
Ya ves, el infierno no puede esperar.

[C]
En el infierno yo tengo un lugar.
En el infierno prefiero estar.
Ya ves, el infierno no puede esperar.




YO LES DIRIA QUE TOQUEN EN QUINTAS PORQUE SUENA MEJOR
Calificar esta versión:
Aviso: Este fichero es trabajo propio de su transcriptor y representa su interpretación personal de la canción. El material contenido en esta página es para exclusivo uso privado, por lo que se prohibe su reproducción o retransmisión, así como su uso para fines comerciales.
Más versiones de El Infierno No Puede Esperar, Violadores
El Infierno No Puede Esperar
acordes
El Infierno No Puede Esperar
tablatura
Descubre más canciones de Violadores