Perdiendo El Tiempo, Vilma Palma E Vampiros (tablatura)

Autor: Anónimo | 42315 visualizaciones

Intro: 


Primera Parte:
--------------

Keyboard (Arranged For Guitar):

   D#       Bb       Cm       G#

e--3~~~~----1~~~~----3~~~~----4~~~~----|
B--4~~~~----3~~~~----4~~~~----4~~~~----|
G--3~~~~----3~~~~----5~~~~----5~~~~----|
D--x--------3~~~~----5~~~~----6~~~~----| X 2
A--x--------1~~~~----3~~~~----6~~~~----|
E--x--------1~~~~----3~~~~----4~~~~----|


Segunda Parte:
--------------

Acoustic Guitar: (Con Keyboard de Fondo)

   D#       Bb       Cm       G#

e--3--------1--------3--------4--------|
B--4--------3--------4--------4--------|
G--3--------3--------5--------5--------|
D--x--------3--------5--------6--------| X 2
A--x--------1--------3--------6--------|
E--x--------1--------3--------4--------|

 
Verso 1:

 D#         Bb        Cm                       G#
Hey! Tan sólo, anocheciendo en este cuarto marro-o-ón 
      D#        Bb             Cm                    G#
Hey, hey! Otra vez, pasé el invierno extrañando tu olo-o-o-or. 
D#            Bb            Cm               G#
Uuuuh! Vos sabés, que busco algo para desperta-a-a-ar.
      D#            Bb             Cm                       G#
Hey, hey! No me hablés, estoy tan muerto que no te puedo hablar.



Puente:

           Cm        G#
Sólo por amo-o-o-o-o-or,
         D#                Bb
yo me levanto y vuelvo a caer, 
              Cm       G#
sólo por tu amor, uo uoooo!
        D#                       Bb 
me doy vueltas como en un carrousel.



Coro:

                            D#            Bb
Perdiendo el tiempo por pensar en volver,
                      Cm         G#
si por lo menos todo fuera igual.
                            D#            Bb
Perdiendo el tiempo por pensar en volver,
                     Cm                   G#
o si una noche te pudiera olvidar, ya no sé cómo hacer.



Intro: (Segunda Parte)



Verso 2:

 D#         Bb           Cm                     G#
Hey! Tan sólo pido en silencio que me des tu calo-o-o-or. 
      D#        Bb             Cm                         G#
Hey, hey! Otra vez como en un cuento vuelvo hacer tu cancio-o-o-ón. 
D#            Bb            Cm                  G#
Uuuuh! vos sabés, es tan difícil volver para atra-a-a-ás.
      D#            Bb           Cm                G#
Hey, hey! No me hablés, como quisiera poderte abrazar.



Puente



Coro



Solo: (Keyboard Arranged For Guitar)

                                                                                                                    
  D#         Bb          Cm          G#          D#             Bb          Cm                   G#               Cm
                                                                                                   ... Sólo por amo-or...

e----6-4-3-4-3---------------6-4-3-4-3--------------6-3-6-3-6-6h8-6~--3-6h8-8~~--6-8h11~~--11h13-11~~--11-13-11p8-8~~~--|
B--------------6~~-4s8~~---------------6~~-4s8~~------------------------------------------------------------------------|
G-----------------------------------------------------------------------------------------------------------------------|
D-----------------------------------------------------------------------------------------------------------------------|
A-----------------------------------------------------------------------------------------------------------------------|
E-----------------------------------------------------------------------------------------------------------------------|



Puente



Coro 2:

                            D#            Bb
Perdiendo el tiempo por pensar en volver,
                      Cm         G#
si por lo menos todo fuera igual.
                            D#            Bb
Perdiendo el tiempo por pensar en volver,
                     Cm          G#
o si una noche te pudiera olvidar.  [2]



Coro



Outro: (Efecto Power Chords)

   D#             Bb             Cm             G#                        D#

e--------------------------------------------------------------|       e----------------|
B--------------------------------------------------------------|       B----------------|
G--8-8-8-8-8-8-8--3-3-3-3-3-3-3--5-5-5-5-5-5-5-----------------|       G--8~~~~~--------|
D--8-8-8-8-8-8-8--3-3-3-3-3-3-3--5-5-5-5-5-5-5--6-6-6-6-6-6-6--| X 2   D--8~~~~~--------|
A--6-6-6-6-6-6-6--1-1-1-1-1-1-1--3-3-3-3-3-3-3--6-6-6-6-6-6-6--|       A--6~~~~~--------|
E-----------------------------------------------4-4-4-4-4-4-4--|       E----------------|


Dudas y/o comentarios, enviarlos a mi E-mail, O.K.
Calificar esta versión:
Aviso: Este fichero es trabajo propio de su transcriptor y representa su interpretación personal de la canción. El material contenido en esta página es para exclusivo uso privado, por lo que se prohibe su reproducción o retransmisión, así como su uso para fines comerciales.
Más versiones de Perdiendo El Tiempo, Vilma Palma E Vampiros
Perdiendo El Tiempo
acordes
Perdiendo El Tiempo
tablatura
Descubre más canciones de Vilma Palma E Vampiros