La Pachanga, Vilma Palma E Vampiros (bajo)

Autor: Anónimo | 38837 visualizaciones

Tabbed by: Roberto 'stormtrooper' Ferrín

Afinación: standard

Parámetros usados:
/= slide
h= hammer-on

Intro:
G|-------|------|------|-------|
D|-------|------|------|-------|
A|-7/5---|------|------|-7/5---|
E|-----5-|------|------|-----5-|

G|---------|---------------------------|
D|---------|---------------------------|
A|---------|---------------------5-----|
E|-0-3-0-3-|-5-5-5--1-1-1--5-5-3---3-3-|

G|---------------------------|
D|---------------------------|
A|---------------------5-----|
E|-5-5-5--1-1-1--5-5-3---3-3-|


Verse:
G|------------|
D|------------|
A|------------| toca varias veces
E|-5-5--5-5-5-| este riff

G|--------------------------|-----------------------|
D|--------------------------|-----------------------|
A|--------------------3-5-3-|--------------------3/-|
E|-3-5--3-5--3-5--3-5-------|-3-5--3-5--3-5--3-5----|
  Yo te pido por favor...     Vos solo tenés...


Pre-chorus:
G|------------------|---------------------------|
D|------------------|---------------------------|
A|------------------|---------------------------|
E|-1--1-1--1-3--3-3-|-3-1--1-1--1--3-3--3-3-3-3-|


Chorus:
G|------------------------------|----------------------------------|
D|------------------------2-----|----------------------------------|
A|-7/5--------------------------|---------------------5------------| X 2
E|-----5-5-5--1-1-3--5--3---3-3-|-5-5-5--1-1-3--5-5-3---3--0h3-0h3-|


Bridge:
G|-------------------|-------------|
D|-------------------|-------------|
A|-3-3-3-1-----------|-3-3-3-------| toca este riff
E|---------3-1-0-1-3-|-------3-1-3-| varias veces

luego:
G|------------------|----------------------|
D|------------------|----------------------|
A|------------------|----------------------|
E|-4--4-4--4-1--1-1-|-4--4-4--1-1--1-1-1-1-|


Repite los riffs las veces necesarias.

Comentarios, opiniones, lo que sea, bienvenido :)
Calificar esta versión:
Aviso: Este fichero es trabajo propio de su transcriptor y representa su interpretación personal de la canción. El material contenido en esta página es para exclusivo uso privado, por lo que se prohibe su reproducción o retransmisión, así como su uso para fines comerciales.
Más versiones de La Pachanga, Vilma Palma E Vampiros
La Pachanga
acordes
La Pachanga
bajo
Descubre más canciones de Vilma Palma E Vampiros