Fondo Profundo, Vilma Palma E Vampiros (tablatura)

Autor: Anónimo | 44710 visualizaciones

Intro:  notas de teclado traducidas para guitarra 

E|17---17----17-------17----15---15---15|13---13---13------13---12---12---12|
B|--17----17----17-17---17----15----15--|---13---13---13-13---13---12---12--|
G|--------------------------------------|-----------------------------------|
D|--------------------------------------|-----------------------------------|
A|--------------------------------------|-----------------------------------|
E|--------------------------------------|-----------------------------------|


E|17---17----17-------17----15---15---15|13---13---13------13---12--|
B|--17----17----17-17---17----15----15--|---13---13---13-13---13----|
G|--------------------------------------|---------------------------|
D|--------------------------------------|---------------------------|
A|--------------------------------------|---------------------------|
E|--------------------------------------|---------------------------|

notas de trompeta traducidas para guitarra

E|0------0-------0-1-0------------|--------0----------------|----------------|
B|--1--3----1--3--------1-3-0-1--3|0--1--3---1--0--1---0--1-|--0--1--3--0---0|
G|--------------------------------|------------------2------|2------------2--|
D|--------------------------------|-------------------------|----------------|
A|--------------------------------|-------------------------|----------------|
E|--------------------------------|-------------------------|----------------|

E|-------------|
B|0---0---1---3|
G|-------------|
D|-------------|
A|-------------|
E|-------------|

E|0------0-------0-1-0------------|--------0----------------|----------------|
B|--1--3----1--3--------1-3-0-1--3|0--1--3---1--0--1---0--1-|--0--1--3--0---0|
G|--------------------------------|------------------2------|2------------2--|
D|--------------------------------|-------------------------|----------------|
A|--------------------------------|-------------------------|----------------|
E|--------------------------------|-------------------------|----------------|

verso 1
                    Am                        G
Pues, servir otra botella, que me esta quemando 
                           F                    E
un fuego profundo que se consume, lo que hemos vivido 
                  Am                     G
llenala hasta el borde, brindo por tus ojos que se van yendo
         F                  E
de mi mirada, ya no vere nada

coro
                        Am                    G
Es por la fuerza de mi amor que me desespero
                       F                         E
y aunque reviente de dolor jamas vivi cosa tan buena
                   Am                         G
es este vaso que tome quizas de mas y me envenena
                      F                              E
siento la pena de tu adios no me hara mal no temas nena

E|0------0-------0-1-0------------|--------0----------------|----------------|
B|--1--3----1--3--------1-3-0-1--3|0--1--3---1--0--1---0--1-|--0--1--3--0---0|
G|--------------------------------|------------------2------|2------------2--|
D|--------------------------------|-------------------------|----------------|
A|--------------------------------|-------------------------|----------------|
E|--------------------------------|-------------------------|----------------|

E|-------------|
B|0---0---1---3|
G|-------------|
D|-------------|
A|-------------|
E|-------------|

E|-------------------------------|----------------------------------------|
B|1---0--1---0--1--3--0---0-----0|-----0--1--0--------------------0------0|
G|--2------2------------2---0--2-|0--2---------0--2---0--2---0--2---2--0--|
D|-------------------------------|------------------3------3--------------|
A|-------------------------------|----------------------------------------|
E|-------------------------------|----------------------------------------|

E|-------------|
B|0---0---1---3|
G|-------------|
D|-------------|
A|-------------|
E|-------------|

verso 2 (los mismos acordes de verso 1)

la noche se pasa
y sigo tomando a fondo profundo hasta que no sienta
que todo es un sueño
besame una hora
quisiera quedarme con tu sonrisa como recuerdo
para cuando extrañe

coro 

puente
                 F                          E
Y no me tengas miedo nada mas deja que te lleve
                 F                              E 
y no me tengas miedo nada mas brindo a nuestro nombre
               G                          A
y no sientas culpa pegame hasta lo mas profundo
                     B                           C              
ya no puedo estar escapando de la verdad por la vida entera

coro

Y al final

E|5--5---3|
B|--5--5--|
G|--------|
D|--------|
A|--------|
E|--------|

Eso es todo, espero que salga bien.
Y te dedico esta cancion a ti, Laura
Calificar esta versión:
Aviso: Este fichero es trabajo propio de su transcriptor y representa su interpretación personal de la canción. El material contenido en esta página es para exclusivo uso privado, por lo que se prohibe su reproducción o retransmisión, así como su uso para fines comerciales.
Más versiones de Fondo Profundo, Vilma Palma E Vampiros
Fondo Profundo
acordes
Fondo Profundo
tablatura
Descubre más canciones de Vilma Palma E Vampiros