Cumbia, Vilma Palma E Vampiros (tablatura)

Autor: Anónimo | 14665 visualizaciones

Intro:   


e--7-9-10-10-10~~--9-7-9---------7-9-10-10-10~~--9-7-9-14-14~~---7-9-9~~----|
B------------------------7-7~~----------------------------------------------|
G---------------------------------------------------------------------------|
D---------------------------------------------------------------------------|
A---------------------------------------------------------------------------|
E---------------------------------------------------------------------------|


 [  Bm  ]  (4)



Verso 1:

  Bm
Tené la guitarra a mano 
            F#
la banda espera en el backstage.
    Bm
Hay algo que esta sonando
             F#
los chicos gritan no les fallé.




Verso 2:

           Bm
No te preocupes más
             F#
seguimos cantando como ayer.
          Bm
Es tan inmenso el sol
              F#
quisiera que todos lo puedan ver.




Coro:

   G       F#m
Hooo   Hoooooo
  G        F#m
Hooo   Hoooooo.... Racata!!!





 [  Bm  ]  (4)





Verso 3:

   Bm
Déjame oirte decir que sí
           F#
hay que tocar hasta reventar.
    Bm
Por algo que está pasando 
           F#
y nada lo podrá ya parar.




Verso 4:

            Bm
Es bueno este dolor
          F#
de darlo todo y nunca tener.
         Bm
Es inmortal mi amor
            F#
y sigue, y sigue buscádote.




Coro




Solo:


 [ Bm ]  (4)   F#   Bm   F#    



   Em         F#           Em        F#

e-------7-5--------------------7-5---------------|
B--5~~------5h7-5h7-7~~----5~~-----5h7-5h7-7~~---|
G------------------------------------------------|
D------------------------------------------------|
A------------------------------------------------|
E------------------------------------------------|




Coro




 [ Bm ]  (4)




Verso 5:

            Bm
Soy tan suicida por tus encantos
        F#
el escenario arde por vos.
          Bm
La banda siempre estará tocando
            F#
los chicos cantan esta canción.




Verso 6:

           Bm
No te preocupes más, 
             F#           Bm
seguimos creciendo como ayer.. 
       F#
como aye-e-e-er.



Coro



[ Bm  ]  (8)  Bm
Calificar esta versión:
Aviso: Este fichero es trabajo propio de su transcriptor y representa su interpretación personal de la canción. El material contenido en esta página es para exclusivo uso privado, por lo que se prohibe su reproducción o retransmisión, así como su uso para fines comerciales.
Más versiones de Cumbia, Vilma Palma E Vampiros
Cumbia
acordes
Cumbia
tablatura
Descubre más canciones de Vilma Palma E Vampiros