Anton Tiruliru Liru, Villancicos (tablatura)

Autor: sudario45 | 39507 visualizaciones



Mi primera tab espero les guste :)

e-5-2-2-0-2-3-5-2----5-3-3-2-3-5-2
b---------------------------------
g---------------------------------
D---------------------------------    X2
A---------------------------------
E---------------------------------


e---7-7-7-5-5-5-3-3-5-2-
b-3---------------------
g-----------------------
D-----------------------    X2
A----------------------
E----------------------

e-5----2-5-7-----3-7-5----2-3----5-7-0----5-3-2-
b----------------------------------------------
g---------------------------------------------- X2
D----------------------------------------------
A----------------------------------------------
E----------------------------------------------





Calificar esta versión:
Aviso: Este fichero es trabajo propio de su transcriptor y representa su interpretación personal de la canción. El material contenido en esta página es para exclusivo uso privado, por lo que se prohibe su reproducción o retransmisión, así como su uso para fines comerciales.
Más versiones de Anton Tiruliru Liru, Villancicos
Anton Tiruliru Liru
acordes
Anton Tiruliru Liru
tablatura
Descubre más canciones de Villancicos