Al Mundo Paz, Villancicos (tablatura)

Autor: Anónimo | 31100 visualizaciones



e:-8-7-5-3---1-0-------3-5-5-7-7-8-----
B:---------------3-1-------------------
G:-------------------------------------

e:-8-7-5-3----8-7-5-3----
B:-----------------------
G:-----------------------

e:-0-0-0-0-0-1-3----1-0---------0-1-
B:----------------------3-3-3-3-----
G:----------------------------------

e:-0----5-3----1-0-------
B:---3-------------3-1---
G:-----------------------

e:-8-7-5-3---1-0-------3-5-5-7-7-8-----
B:---------------3-1-------------------
G:-------------------------------------

e:-8-7-5-3----8-7-5-3----
B:-----------------------
G:-----------------------

e:-0-0-0-0-0-1-3----1-0---------0-1-
B:----------------------3-3-3-3-----
G:----------------------------------

e:-0----5-3----1-0-------
B:---3-------------3-1---
G:-----------------------


e:-8-7-5-3---1-0-------3-5-5-7-7-8-----
B:---------------3-1-------------------
G:-------------------------------------

e:-8-7-5-3----8-7-5-3----
B:-----------------------
G:-----------------------

e:-0-0-0-0-0-1-3----1-0---------0-1-
B:----------------------3-3-3-3-----
G:----------------------------------

e:-0----5-3----1-0-------
B:---3-------------3-1---
G:-----------------------





Calificar esta versión:
Aviso: Este fichero es trabajo propio de su transcriptor y representa su interpretación personal de la canción. El material contenido en esta página es para exclusivo uso privado, por lo que se prohibe su reproducción o retransmisión, así como su uso para fines comerciales.
Más versiones de Al Mundo Paz, Villancicos
Al Mundo Paz
acordes
Al Mundo Paz
tablatura
Descubre más canciones de Villancicos