Descansar En Paz, Viejas Locas (tablatura)

Autor: Anónimo | 28468 visualizaciones



SOLO

e|---------------------------------------13--------------------------------
B|-------------------------11-13-13b-13b----13p11----11-13b-11-------------
G|-s12-12-12-12-12-12--s12------------------------12-----------12-12-------
D|-------------------------------------------------------------------------
A|-------------------------------------------------------------------------
E|-------------------------------------------------------------------------


e|----3-----1--s10--------10-------10------10------------------------------
B|-----------------11--------11-------11------11-------------------------11
G|-s3---s2------------12--------12-------12------12--12p10-10h11h12-12-12--
D|-------------------------------------------------------------------------
A|-------------------------------------------------------------------------
E|-------------------------------------------------------------------------


e|----------13-------------------------------------------------------------
B|---11-13b----13p11----11-------------------------6-------------------5-3-
G|12-----------------12------------------3-5-3-5b----5p3---------------5-3b
D|-------------------------------------5-----------------5-5p3---3h4h5-----
A|-------------------------------3-3h5-------------------------5-----------
E|-------------------------3-3h6-------------------------------------------


e|----------------------------------6h3-----------------------------------
B|-------------5-3-----------8-7-5-------6h3--------------------------5-3-
G|-------------5-3b-----6------7-5-----------5-5ba-p3-5p3-------------5-3b
D|-5p3---3h4h5--------------------------------------------5-5p3--3h4h5----
A|-----5------------s7----7-------------------------------------5---------
E|------------------------------------------------------------------------





Calificar esta versión:
Aviso: Este fichero es trabajo propio de su transcriptor y representa su interpretación personal de la canción. El material contenido en esta página es para exclusivo uso privado, por lo que se prohibe su reproducción o retransmisión, así como su uso para fines comerciales.
Más versiones de Descansar En Paz, Viejas Locas
Descansar En Paz
acordes
Descansar En Paz
tablatura
Descubre más canciones de Viejas Locas