Chico De La Oculta, Viejas Locas (tablatura)

Autor: Anónimo | 31173 visualizaciones



NOTA
Para los “riff” se puede usar SLIDE  o no.... de la misma manera suenan bien... 
yo prefiero usar el slide

....  = pausa
s     = slide
()    = levantar o bajar según lo indique.. el N° q esta dentro del paréntesis
********************************************************************************

intro: (repite en toda la estrofa)

       MI

1)-0-----------0
2)--------------
3)--------------
4)---4-------4--
5----5...-5----
6)--------------

    MI                             LA               MI
su padre era un borracho que no podia dejar el alcohol
    MI                        LA         MI
su madre era muy buena pero nunca la cuido
           LA LA
y esta tirado
           LA LA               MI
esta dado vuelta en un zanjon
                 FA*                 LA         MI
aspirando las pequeñas cosas que la vida no le dio

inter: MI

1)-----------------|-----------
2)-9....-7-5-7s5---|9-8-7---6-5
3)-7....-5-3-5s3---|7-6-5---4-3
4)-----------------|-----------
5)-----------------|-----------
6)-----------------|-----------

riff 1                 riff 2       riff 3    riff 4  riff 5 (con slide)

1)--------------------|---------|------------|------|----------------|
2)-----12-------------|---------|------------|------|------18--------|
3)-9/12----12.../9....|-----9...|------------|----9-|-16/18--18-14...|
4)--------------------|-9-11----|9/11..-11/9-|9-11--|----------------|
5)--------------------|9--------|------------|------|----------------|
6)--------------------|---------|------------|------|----------------|

riff 6 (con slide)      riff 7     riff 8           el riff 7 y 8 hacerlo
                                                    también con “slide”
1)-------------------|----------|-----------------
2)------18...--------|----------|-----------------
3)-16/18-----18-14...|-14/16/14-|--16----14-----12  el riff 8= hacerlo
4)-------------------|----------|-----------------  lento siguiendo la
5)-------------------|----------|-----------------  canción..
6)-------------------|----------|-----------------
                                            riff 1
cuando el era muy pequeño a pocos le importo
                  riff 2    riff 3
procuraba sus alimentos y algún almohadon
riff4 riff 5
para acostarse
           riff 6
y acolchonar su corazón
     riff 7                   riff 8
por la calle de ciudad oculta el camina hoy.

Inter=

1)-----------------|-----------
2)-9....-7-5-7s5---|9-8-7---6-5
3)-7....-5-3-5s3---|7-6-5---4-3
4)-----------------|-----------
5)-----------------|-----------
6)-----------------|-----------

   MI5
y yo, yo
        LA5           MI5
yo le dedico este rocanrol

repite la cancion de la misma manera pero mas rapido.

Después del silencio..... hace esto...

                      |Esta parte hacer (pm) |
                      |palm mute... menos m5 |
1)-------|------------|-----------------|
2)-------|------------|-----------------|
3)-------|------------|-----------------|
4)-------|-------9-9-9|-------------7-7-|
5)-7/1---|-7-----7-7-7|-----7--7----9-9-|
6)-------|--9...--9---|-7-9--7----------|


         |desde aca... hace esto. Pero mas rapido.. y tira un par de m5


**************************************************************************************
bueno.. espero que le sirva.... cualquier duda hacerlo a federnr_la25@hotmail.com
aguante viejas locas,,,, un saludo





Calificar esta versión:
Aviso: Este fichero es trabajo propio de su transcriptor y representa su interpretación personal de la canción. El material contenido en esta página es para exclusivo uso privado, por lo que se prohibe su reproducción o retransmisión, así como su uso para fines comerciales.
Más versiones de Chico De La Oculta, Viejas Locas
Chico De La Oculta
acordes
Chico De La Oculta
tablatura
Chico De La Oculta
armonica
Descubre más canciones de Viejas Locas