Botellas, Viejas Locas (tablatura)

Autor: Anónimo | 40297 visualizaciones



SOLO

e|----------------------------------------------7-5---5---5----
B|----8-----8-----5----5----5----5----5----5----7---7---7------
G|-s9----s9----7b---7b---7b---7b---7b---7b---------------------
D|-------------------------------------------------------------
A|-------------------------------------------------------------
E|-------------------------------------------------------------

e|-8-5---5---5-------------------------------------------------
B|-8---7-----5---------------------------8----8-----10-12-10---
G|---------7---7ba-5-7-5-7-5-7ba-5----s9---s9---s11------------
D|-------------------------------------------------------------
A|---------------------------------7---------------------------
E|-------------------------------------------------------------

e|-------------------------------------------------------------
B|-12ba-p10----10------10-----10-10-----10-----10-10-----10----
G|----------11-----12b----12b-------12b----12b-------12b-------
D|-------------------------------------------------------------
A|-------------------------------------------------------------
E|-------------------------------------------------------------

e|------------------------------10-11-12-9----------10---------
B|-----10--12ba-p10----10---12b------------12-10----10---------
G|-12b--------------11---------------------------12------------
D|-------------------------------------------------------------
A|-------------------------------------------------------------
E|-------------------------------------------------------------

e|-------------------------------------------------------------
B|-----10-12-10--12b-12b-12b-12ba-10v-10v----------------------
G|-s11---------------------------------------------------------
D|-------------------------------------------------------------
A|-------------------------------------------------------------
E|-------------------------------------------------------------





Calificar esta versión:
Aviso: Este fichero es trabajo propio de su transcriptor y representa su interpretación personal de la canción. El material contenido en esta página es para exclusivo uso privado, por lo que se prohibe su reproducción o retransmisión, así como su uso para fines comerciales.
Más versiones de Botellas, Viejas Locas
Botellas
acordes
Botellas (ver 2)
acordes
Botellas
tablatura
Descubre más canciones de Viejas Locas