Adrenalina, Viejas Locas (bajo)

Autor: Anónimo | 24993 visualizaciones



   Adrenalina, tibia chica fina
G-----------------------------------------------------------------
D-----------------------------------------------------------------
A----------------------------------3--3----6/7-------3--3----6/7--
E--3--3----6/7-------3--3----6/7----------------------------------


   Adrenalina, tibia chica fina
G-----------------------------------------------------------------
D-----------------------------------------------------------------
A----------------------------------3--3----6/7-------3--3----6/7--
E--3--3----6/7-------3--3----6/7----------------------------------


   Adrenalina, tibia chica fina
G-----------------------------------------------------------------
D-----------------------------------------------------------------
A----------------------------------3--3----6/7-------3--3----6/7--
E--3--3----6/7-------3--3----6/7----------------------------------



   Adrenalina, tibia chica fina
G-----------------------------------------------------------------
D-----------------------------------------------------------------
A----------------------------------3--3----6/7-------3--3----6/7--
E--3--3----6/7-------3--3----6/7----------------------------------

  La adrenalina de la vida
G--------------------------------------
D--------------------------------------
A-------2-3 5------22-33-45------------
E-3---3-------3--3---------------------

  la que te embarra el culo todos los días
G--------------------------------------
D------2-3-5------22-33-45-------------
A-3--3-------3--3----------------------
E--------------------------------------

  y estás cansado ya de preguntarte
G--------------------------------------
D--------------------------------------
A-------2-3 5------22-33-45------------
E-3---3-------3--3---------------------

  para qué hacer todo esto?
G--------------------------------------
D------2-3-5------22-33-45-------------
A-3--3-------3--3----------------------
E--------------------------------------

y sigue toda la cancion asi




damianbrown@live.com





Calificar esta versión:
Aviso: Este fichero es trabajo propio de su transcriptor y representa su interpretación personal de la canción. El material contenido en esta página es para exclusivo uso privado, por lo que se prohibe su reproducción o retransmisión, así como su uso para fines comerciales.
Más versiones de Adrenalina, Viejas Locas
Adrenalina
acordes
Adrenalina
tablatura
Adrenalina
bajo
Descubre más canciones de Viejas Locas