Tetris, Video Juegos (tablatura)

Autor: Zwiner.-! | 40529 visualizaciones



e|--0-----------------0-------------0--------|
B|----0-1-3-1-0-----1---3-1-0-0-1-3---1------|
G|--------------2-2---------------------2-2--|
D|-------------------------------------------|
A|-------------------------------------------|
E|-------------------------------------------|

e|----1-5-3-1-0---0-------------0------------|
B|--3-----------1---3-1-0-0-1-3---1----------|
G|----------------------------------2-2------|
D|-------------------------------------------|
A|-------------------------------------------|
E|-------------------------------------------|

Guitar 1 (melody)
e|--0-----------------0-------------0--------|
B|----0-1-3-1-0-----1---3-1-0-0-1-3---1------|
G|--------------2-2---------------------2-2--|
D|-------------------------------------------|
A|-------------------------------------------|
E|-------------------------------------------|

e|----1-5-3-1-0---0-------------0------------|
B|--3-----------1---3-1-0-0-1-3---1----------|
G|----------------------------------2-2------|
D|-------------------------------------------|
A|-------------------------------------------|
E|-------------------------------------------|





Calificar esta versión:
Aviso: Este fichero es trabajo propio de su transcriptor y representa su interpretación personal de la canción. El material contenido en esta página es para exclusivo uso privado, por lo que se prohibe su reproducción o retransmisión, así como su uso para fines comerciales.
Más versiones de Tetris, Video Juegos
Tetris
tablatura
Tetris (ver 2)
tablatura
Descubre más canciones de Video Juegos