Mortal Kombat, Video Juegos (tablatura) (ver 2)

Autor: german0 | 21506 visualizaciones



mortal kombat original(riff 1)
1)--------------------0---3---0--------------------------
2)----1---3---5-3-1-1---1---1---1---------1---1-0--------
3)2-2---2---2-------------------------2------------------
4)--------------------------------3-3---3---3------------
(1)(riff 2)opcional (1) o (2)
 
(5)0--0--0-----3--0--0--0--------0--0--0------3-0-0000----------
(6)--------3-3------------3-3-0-----------3-3-------------------

(2)(riff2)
(4)0--0--0-----3--0--0--0-------0--0--0-----3-0--0000------------
(5)--------3-3------------3-3-0---------3-3----------------------
por favor comenten





Comentarios del colaborador: que es la h entre dos numeros como 1h3 en la tab

Calificar esta versión:
Aviso: Este fichero es trabajo propio de su transcriptor y representa su interpretación personal de la canción. El material contenido en esta página es para exclusivo uso privado, por lo que se prohibe su reproducción o retransmisión, así como su uso para fines comerciales.
Más versiones de Mortal Kombat, Video Juegos
Mortal Kombat
tablatura
Mortal Kombat (ver 2)
tablatura
Descubre más canciones de Video Juegos