Mario Bros, Video Juegos (tablatura)

Autor: joseluis | 16560 visualizaciones



e:-----------------------0--3--5--1--3--0---------------------
b:-1---------0-----------------------------1--3--0------------
g:----0----2---3--2---0---------------------------------------x2
d:------2-----------------------------------------------------
a:------------------------------------------------------------
E:------------------------------------------------------------



e:-3-2-1-0---0-----------------3-2-1-0---0---8--8-8-----------
b:---------4--------1---1--3-----------4----------------------
g:--------------1-2---2---------------------------------------
d:------------------------------------------------------------
a:------------------------------------------------------------
E:------------------------------------------------------------

e:-3-2-1-0---0----------------------
b:---------4-------1---1-3--4-3-1---
g:-------------1-2------------------x2
d:----------------------------------
a:----------------------------------
E:----------------------------------



e:-----------0--------------------0--------------0-----------
b:-1-1-1-1-3---1--------1-1-1-1-3------1-1-1-1-3---1---------
g:---------------2-0---------------------------------2-0-----
d:-----------------------------------------------------------
a:-----------------------------------------------------------
E:-----------------------------------------------------------

e:-----------0----------0-0-0---0-3---
b:-1-1-1-1-3---1--------------1-------
g:---------------2-0----------------0-
d:------------------------------------
a:------------------------------------
E:------------------------------------





Calificar esta versión:
Aviso: Este fichero es trabajo propio de su transcriptor y representa su interpretación personal de la canción. El material contenido en esta página es para exclusivo uso privado, por lo que se prohibe su reproducción o retransmisión, así como su uso para fines comerciales.
Más versiones de Mario Bros, Video Juegos
Mario Bros
tablatura
Mario Bros (ver 2)
tablatura
Mario Bros (ver 3)
tablatura
Descubre más canciones de Video Juegos