Recuerdos De Amor, Victor Y Leo (tablatura) (ver 2)

Autor: champi | 29642 visualizaciones

l/-3a5--5--------------------------------
2/--------7--7--5---5---3a7--------------
3/---------------------------------------
4/---------------------------------------
5/---------------------------------------
6/---------------------------------------



1/-3a5--5--------------------------------
2/--------7--7--5---5---------3--3a5--3--
3/---------------------2-4--------------4
4/---------------------------------------
5/---------------------------------------
6/---------------------------------------


1/---------------------------------------
2/-2-2-----------------------------------
3/-----4--4---2-2------------------------
4/----------------3--3a5-----------------
5/---------------------------------------
6/---------------------------------------


1/---------------------------------------
2/-2-2-----------------------------------
3/-----4--4---2-2-----3a5----------------
4/----------------3----------------------
5/---------------------------------------
6/---------------------------------------
Calificar esta versión:
Aviso: Este fichero es trabajo propio de su transcriptor y representa su interpretación personal de la canción. El material contenido en esta página es para exclusivo uso privado, por lo que se prohibe su reproducción o retransmisión, así como su uso para fines comerciales.
Más versiones de Recuerdos De Amor, Victor Y Leo
Recuerdos De Amor
acordes
Recuerdos De Amor (ver 2)
acordes
Recuerdos De Amor (ver 3)
acordes
Recuerdos De Amor
tablatura
Recuerdos De Amor (ver 2)
tablatura
Recuerdos De Amor (ver 3)
tablatura
Descubre más canciones de Victor Y Leo