Otra Vez, Victor García (tablatura)

Autor: Anónimo | 35308 visualizaciones

ESTA CANCION ESTA MUY FACIL Y VA ASI:

INTRO:
E|----------------------------------------------------------------|
B|----------------------------------------------------------------|
G|----------------------------------------------------------------|
D|----------------------------------------------------------------|
A|----------------------------------------------------------------|
E|----------------------------------------------------------------|

VERSO:
E|-----10--------10-----------10----------------------------------|   |
B|----------------------------------------------------------------|   |
G|---12--12--12----12-------12--12--12--11------------------------|   |
D|-12------12--12---------12------12--12--12----------------------|   |
A|----------------------------------------------------------------|   |
E|----------------------------------------------------------------|   |
                                                                      |
E|-----10--------10-----------10--------10------------------------|   |
B|----------------------------------------------------------------|   |
G|---12--12--12----12-------12--12--12----12----------------------|   |
D|-12------12--12---------12------12--12--------------------------|   | X2
A|----------------------------------------------------------------|   |
E|----------------------------------------------------------------|   |
                                                                      |
E|-----10--------10-----------10--------10-----------10-----------|   |
B|----------------------------------------------------------------|   |
G|---12--12--12----12-------12--12--12----12-------12-----12------|   |
D|-14------14--14---------14------14--14---------12---------------|   |
A|----------------------------------------------------------------|   |
E|----------------------------------------------------------------|   |

E|----------------------------------------------------------------|
B|----------------------------------------------------------------|
G|-12~-----------------------------------------------------------|
D|----------------------------------------------------------------|
A|----------------------------------------------------------------|
E|----------------------------------------------------------------|

CORO:
E|----------------------------------------------------------------|   
B|-12-13p12-12--15p12-13p12--12-13p12-12--15p12-13p12-------------|   
G|----------------------------------------------------------------|   
D|----------------------------------------------------------------| x2
A|----------------------------------------------------------------|  
E|----------------------------------------------------------------|   
                                                                      
E|----------------------------------------------------------------|   
B|-13-15p13-13--15p13-13---------15-17p15-15--17p15-15------------|
G|----------------------------------------------------------------|
D|----------------------------------------------------------------|
A|----------------------------------------------------------------|
E|----------------------------------------------------------------|

E|----------------------------------------------------------------|   
B|-12-13p12-12--15p12-13p12--12-13p12-12--15p12-13p12-------------|   
G|----------------------------------------------------------------|   
D|----------------------------------------------------------------| x2
A|----------------------------------------------------------------|  
E|----------------------------------------------------------------|   
                                                                      
E|----------------------------------------------------------------|   
B|-13-15p13-13--15p13-13---------15-17p15-15--17p15-15------------|
G|----------------------------------------------------------------|
D|----------------------------------------------------------------|
A|----------------------------------------------------------------|
E|----------------------------------------------------------------|

E|----------------------------------------------------------------|   
B|-12-13p12-12--15p12-13p12--12-13p12-12--15p12-13p12-------------|   
G|----------------------------------------------------------------|   
D|----------------------------------------------------------------|
A|----------------------------------------------------------------|  
E|----------------------------------------------------------------|  

E|----------------------------------------------------------------|   
B|-13-15p13-13--15p13-13---------15-17p15-15--17p15-15------------|
G|----------------------------------------------------------------|
D|----------------------------------------------------------------|
A|----------------------------------------------------------------|
E|----------------------------------------------------------------|
se repiten cosas hasta terminar
Calificar esta versión:
Aviso: Este fichero es trabajo propio de su transcriptor y representa su interpretación personal de la canción. El material contenido en esta página es para exclusivo uso privado, por lo que se prohibe su reproducción o retransmisión, así como su uso para fines comerciales.
Más versiones de Otra Vez, Victor García
Otra Vez
acordes
Otra Vez (ver 2)
acordes
Otra Vez (ver 3)
acordes
Otra Vez
tablatura
Descubre más canciones de Victor García