Se Despierta La Ciudad, Vicentico (bajo)

Autor: Anónimo | 31008 visualizaciones

La canción tiene 3 diferentes riffs, aprendanse cada uno y despues fijense
con el Orden para seguir los tiempos. 

(Riff 1)
G----------------------------
D-----5-----5-----5-3--------
A---5-----5-----5-----3------
E-3-----3-----3---------1----

G----------------------------
D------5-----5---------------
A----5-----5-----------------
E--3-----3-------------------

(Riff 2)
G----------------------------
D-----------5----------------     
A---------5-----------3------
E-3-1-3-3-----3-1-3-1---1----

Nota: En la canción se escucha que toca con un bajo de 5 cuerdas. Pero no importa porque
usa una nota sola de la cuerda B. Arriba está la base en 4 cuerdas y abajo en 5.

G--------------------------------------------------------
D-----------5---------------------------5----------------     
A---------5---------------------------5-----------3------
E-3-1-3-3-----3-1-3-1---1-----3-1-3-3-----3-1-3-1---1----
B---------------------1----------------------------------

  
(Riff 3)
G----------------------------
D----------------------------
A-----1-33-1-0---------------
E-33-------------------------

Orden:
1. Riff 1 (x3)
2. Riff 2 (x8)
3. Riff 3 (x7)
4. Riff 2 (x12)
5. Riff 3 (x7)
6. Riff 2 (x4)
7. Riff 1 (x6)
8. Riff 2 (x11)
9. Riff 2 (solo de guitarra) (x9)

Final
G----------------------------
D----------------------------
A----------------------------
E---3333333---3--------------

Suerte, cualquier cosa escriban...
Calificar esta versión:
Aviso: Este fichero es trabajo propio de su transcriptor y representa su interpretación personal de la canción. El material contenido en esta página es para exclusivo uso privado, por lo que se prohibe su reproducción o retransmisión, así como su uso para fines comerciales.
Más versiones de Se Despierta La Ciudad, Vicentico
Se Despierta La Ciudad
acordes
Se Despierta La Ciudad
bajo
Descubre más canciones de Vicentico