Paisaje, Vicentico (tablatura)

Autor: Anónimo | 42859 visualizaciones

Hola amigos cómo están,
acá les mando una muy buena canción de Vicentico llamado paisaje,
tema originalmente por Franco simone,
pero en la versión de Vicentico a mi parecer es mucho mejor y tuvo más éxito
Bueno sin más comencemos!!
Nota: Capo en el primer traste,
C#: Tocarlo como un D pero en el primer traste, referente al capo

INTRO:

    Am       Dm    G    C    E      Am      Dm   G    C    E
e-----------------------------------------------------------º
B---1---1----1-0--------------------1---1----1-0------------º
G-----2-----------2-0----0--2-4-------2----------2-0---0--1-º
D--------3------------3------------------3-----------3------º
A-----------------------------------------------------------º
E-----------------------------------------------------------º

Am
No debemos de pensar que ahora es diferente
Dm
mil momentos como este quedan en mi mente
G
no se piensa en el verano cuando cae la nieve
C                           E                     E7
deja que pase un momento y volveremos a querernos


Am
Jamás la lógica del mundo nos ha dividido
Dm
ni el futuro tan incierto nos ha preocupado
G
una vez los dos pensamos, hay que separarse
C                           E                          E7
mas deshicimos las maletas, antes de emprender el viaje

CORO:

A                                                 E
Tú, no podrás faltarme cuando falte todo a mi alrededor
C#                                           F#m
tú, aire que respiro en aquel paisaje donde vivo yo
D                                                   A
Tú, tú me das la fuerza que se necesita para no marcharse
         E              Am
tú me das amor, me das amor

    Am       Dm    G    C    E      Am      Dm   G    C    E
e-----------------------------------------------------------º
B---1---1----1-0--------------------1---1----1-0------------º
G-----2-----------2-0----0--2-4-------2----------2-0---0--1-º
D--------3------------3------------------3-----------3------º
A-----------------------------------------------------------º
E-----------------------------------------------------------º

Am
No debemos de pensar que ahora es diferente
Dm
mil momentos como este quedan en mi mente
G
no se piensa en el verano cuando cae la nieve
C                           E                     E7
deja que pase un momento y volveremos a querernos

CORO:

A                                                 E
Tú, no podrás faltarme cuando falte todo a mi alrededor
C#                                           F#m
tú, aire que respiro en aquel paisaje donde vivo yo
D                                                   A
Tú, tú me das la fuerza que se necesita para no marcharse
         E
tú me das amor,
 Am
amor

FIN !!
Espero les haya gustado,
saludos a todos y larga vida a la buena música !

Comentarios del colaborador: Sacado por Alexander Ramírez

Calificar esta versión:
Aviso: Este fichero es trabajo propio de su transcriptor y representa su interpretación personal de la canción. El material contenido en esta página es para exclusivo uso privado, por lo que se prohibe su reproducción o retransmisión, así como su uso para fines comerciales.
Más versiones de Paisaje, Vicentico
Paisaje
acordes
Paisaje (ver 2)
acordes
Paisaje
tablatura
Descubre más canciones de Vicentico