Algo Contigo, Vicentico (bajo)

Autor: Anónimo | 27174 visualizaciones

No se bien parece bossa
recien aprendo eso
bueno
aca esta una cancion la mas hermosa que escuche
dice mucho
repite y repite
pero dice mucho
a quien mas te lo dedico Andrea
no se si te gusta este estilo de musica
pero no importa dice mucho
atte. miauri
Clave 2:3
Intro
E|--3-------|-3---------|-3-------|-3----------|
A|---5--5/3-|--5--5-5/3-|--5--5/3-|--5--5-5/3--|
D|----5-----|---5-------|---5-----|---5--------|
G|----------|-----------|---------|------------|

Hace falta que te diga
E|--3------|-----|-----|-----|---|----------|
A|---5--5--|--4--|---2-|-----|---|-5-5-5-4--|
D|----5--5-|-4-4-|--4--|-2-2-|-1-|--7-5-----|
G|---------|-----|-4---|--4--|---|----------|

Es que no te
E|---3-----|-----|-----|-----|-------------|----|
A|--3-3--3-|-2-2-|--2--|-0-0-|-------------|----|
D|------5--|--4--|-2-2-|--2--|-------------|-2--|
G|---------|-----|-----|-----|-0h2-4-5-4-2-|----|

Ya no puedo
E|-----------|--------|-----|-----|-----|----|
A|--3-3----3-|-----3--|--5--|-----|--2--|-2--|
D|---5----5--|-3-3--3-|-5-5-|-4-3-|-2-2-|----|
G|------55---|--5-----|-----|-----|-----|----|

Necesito
E|------|----|-----|----|-----|-----|--------------|
A|--0-0-|----|-0-0-|----|-0-0-|-0-2-|-5------------|
D|---2--|-22-|--2--|-22-|--2--|-----|--7------7/4--|
G|------|----|-----|----|-----|-----|---7/9-7/6----|

Hace falta
E|--3------|---2-|-----|-----|---|-------3--|
A|---5--5--|--4--|---2-|-----|---|-5-5--5---|
D|----5--5-|-4---|--4--|-2-2-|-1-|--7-75----|
G|---------|-----|-4---|--4--|---|----------|

Es que no te
E|---3-3--|-----|-----|-----|----|-----|------|
A|--3-3-3-|-2-2-|--2--|-0---|----|-0-0-|-002--|
D|--------|--4--|-2-2-|--2--|-22-|--2--|------|
G|--------|-----|-----|---2-|----|-----|------|

Ya no puedo
E|---------|---------|-----|-----|-----|-----|
A|--3-3-3--|--3--3---|--5--|-----|--2--|-22--|
D|---5---5-|-3-3--34-|-5-5-|-4-3-|-2-2-|-----|
G|---------|---------|-----|-----|-----|-----|

Ya no se
E|------|----|-----|---|-----|----|---0-|-0----|
A|--0-0-|----|-----|-3-|-2-2-|-2--|--2--|--2---|
D|---2--|-02-|-0-0-|---|--4--|--4-|-2---|---2--|
G|------|----|--2--|---|-----|----|-----|------|

Ya me quedan
E|------|-----|-----|-----|-----|-----|---0-|-0---|
A|--0-0-|-0---|-3-3-|-----|--5--|-----|--2--|--2--|
D|---2--|--22-|--5--|-3-3-|-5-5-|-4-3-|-2---|---2-|
G|------|-----|-----|--5--|-----|-----|-----|-----|

No quisiera
E|------|-----|-----|----|------|---------|----|
A|--0-0-|-0-0-|-----|----|------|---------|-0--|
D|---2--|--2--|-0-0-|-0--|-050--|-0---210-|----|
G|------|-----|--2--|--2-|----0-|--012----|----|

Hace falta
E|--3-|-2-|---|-----|---|---------|
A|----|---|-2-|--2--|---|-5-5-54--|
D|----|---|---|-2-2-|-1-|--7-5----|
G|----|---|---|-----|---|---------|

Es que no te
E|----------|-----|-----|-----|----|-----|-----|
A|--3-3-3-3-|-2-2-|--2--|-0---|----|-0---|-----|
D|---5---5--|--4--|-2-2-|--2--|-22-|--2--|-2---|
G|----------|-----|-----|---2-|----|---2-|--2--|

Ya no puedo
E|------|-----|-----|-----|-----|-----|---0-|-0---|
A|--0-0-|-0-0-|-3-3-|--3--|--5--|-----|--2--|--2--|
D|---2--|--2--|--5--|-3-3-|-5-5-|-4-3-|-2---|---2-|
G|------|-----|-----|-----|-----|-----|-----|-----|

Necesito
E|------|-----|-----|---|-----|-----|---0-|-0----|
A|--0-0-|-0-0-|-----|-3-|-2-2-|-2-2-|--2--|--2---|
D|---2--|--2--|-0-0-|---|--4--|--4--|-2---|---2--|
G|------|-----|--2--|---|-----|-----|-----|------|

Ya me quedan
E|------|-----|-----|-----|-----|-----|---0-|-0---|
A|--0-0-|-0-0-|-3-3-|-----|--5--|-----|--2--|--2--|
D|---2--|--2--|--5--|-3-3-|-5-5-|-4-3-|-2---|---2-|
G|------|-----|-----|--5--|-----|-----|-----|-----|

No quisiera
E|------|-----|-----|---|-3-|
A|--0-0-|-0-0-|-----|-0-|---|
D|---2--|--2--|-0-0-|---|---|
G|------|-----|--2--|---|---|

Algo contigo
E|--------|-7-7----|-5----|-3----|-22----|-----|-------|
A|---5----|--7-7-5-|--5-3-|--3-2-|---2-0-|-2-5-|-5-5---|
D|--5-5-4-|--------|------|------|-------|-----|--7-7--|
G|--------|--------|------|------|-------|-----|-------|

Algo contigo
E|-------77-|--7----|-5----|------|-2-----|-----|-------|
A|---5------|-7-7-5-|--5-3-|--3-2-|---2-0-|-2-5-|-5-5---|
D|--5-5-4---|-------|------|-5----|--4----|-----|--7-7--|
G|----------|-------|------|------|-------|-----|-------|

se repite estos dos ultimos
hasta el final
hay cambios, pero a su gusto
Calificar esta versión:
Aviso: Este fichero es trabajo propio de su transcriptor y representa su interpretación personal de la canción. El material contenido en esta página es para exclusivo uso privado, por lo que se prohibe su reproducción o retransmisión, así como su uso para fines comerciales.
Más versiones de Algo Contigo, Vicentico
Algo Contigo
acordes
Algo Contigo
tablatura
Algo Contigo
bajo
Descubre más canciones de Vicentico