Hermoso Cariño, Vicente Fernandez (tablatura) (ver 2)

Autor: memolennon | 16119 visualizaciones

esto es en requinto  

e|-2-2-2-0---2-2-2-2-2-0----2-0-2-0-2-0-2-0-2-0------|
b|-3-3-3-2-3-3-3-3-3-3-2-3--2-2-2-2-2-2-2-2-2-2------|
g|-----------------------4---------------------------|
D|---------------------------------------------------|
A|---------4-----------------------------------------|
E|---------------------------------------------------|


e|-0-0-0--------------0---0--2-----------------------|
b|-2-2-2--3-3-3-3-2-0-2-2-2-----2--------------------|
g|--------4-4-4-4-2-1---2----2--2--------------------|
D|---------------------------------------------------|
A|---------------------------------------------------|
E|---------------------------------------------------|
Calificar esta versión:
Aviso: Este fichero es trabajo propio de su transcriptor y representa su interpretación personal de la canción. El material contenido en esta página es para exclusivo uso privado, por lo que se prohibe su reproducción o retransmisión, así como su uso para fines comerciales.
Más versiones de Hermoso Cariño, Vicente Fernandez
Hermoso Cariño
acordes
Hermoso Cariño
tablatura
Hermoso Cariño (ver 2)
tablatura
Descubre más canciones de Vicente Fernandez