Un Día En El Mundo, Vetusta Morla (tablatura)

Autor: Anónimo | 23227 visualizaciones

 ARPEGIO I
  D                                                D7/(C)
E |---------------------2------------|----------------2---------|
B |-----------3-------------3------3|---------3--------3----3|
G|--------2--------------------2----|-----2-------------------|
D|----0----------0------------------|--3--------3-------------|

G/B                                                  Bb
|-------------0-------------------------|
|-------3---------3-----5----b5--3------|
|----0---------0----------------------3-|
|---------------------------------------|
|2------2-------------------------------|

ARPEGIO II
|-----------3-----------2------|
|--------3-----------3---------|
|-----2-----------4------------|
|0-0-----------0---------------|

|----------0-----------------|
|-------3--------------------|
|----3----------2------------|
|-0-------------0------------|
ARPEGIO III
--------------5----2-|----------5----2-|
----------3----------|-------3---------|
------2--------------|----2------------|
---------------------|-----------------|
---0--------0--------|-3----------3----|

---------5-2-|---------0----------------|
------3------|------3-------10-b10-8---|
----2--------|---2----------------------|
-------------|--------------------------|
--2----2-----|-1------------------------|

ARPEGIO I
D (Dmaj7) D7 G Bb (x2)
Por el día nos encierran
 en sus jaulas de cemento
 y aprendemos del león
ARPEGIO I
D (Dmaj7) D7 G Bb (x2)
Por las noches atrapamos corazones
 axfisiados y disparos en su honor
ARPEGIO II
D G Bm Bb A (x2)
Mírame, soy feliz, tu juego me ha dejado así;
 consumir, producir, la sangre cubre mi nariz
D Em F#m G F#m D
no sé donde quedó el rumor que nos vio  nacer,
D Em Bm Bb A
pagó la jaula el domador
ARPEGIO I
D (Dmaj7) D7 G Bb (x4)
Dilatamos las pupilas en encuentros
con sirenas con las piernas de neón,
y blasfemamos por dios, prometemos por vos,
machacamos nuestros cuerpos prietos
por un sueño de cartón
ARPEGIO II
D G Bm Bb (x2)
Mírame, soy feliz, tu juego me ha dejado así;
disfrazase, seducir, ponerme guapo para ti,
D Em F#m G F#m D
no sé donde quedó el rumor que nos vio nacer,
D Em Bm Bb A
¿pagó la jaula el domador?
Bb A Bb A Bb A
Mírame, soy feliz; mírame,
tu juego me ha dejado así,



ARPEGIO II (x4)
Mírame ¿qué hago aquí? Mírame,
Bm Bb A D
tu juego me ha dejado así.
D G Bm Bb A (x2)
D G Bm Bb A (x6)
No sé qué fue de aquel rumor,
que nos vio crecer siendo la carne del león
Mírame, soy feliz, tu juego me ha dejado así; engañar,
seducir ponerme guapo para ti.
No sé donde quedó el rumor,
¿pagó la jaula el domador?
Bb A (x3)
Mírame, soy feliz, mírame,
tu juego me ha dejado así
ARPEGIO III
D
Calificar esta versión:
Aviso: Este fichero es trabajo propio de su transcriptor y representa su interpretación personal de la canción. El material contenido en esta página es para exclusivo uso privado, por lo que se prohibe su reproducción o retransmisión, así como su uso para fines comerciales.
Más versiones de Un Día En El Mundo, Vetusta Morla
Un Día En El Mundo
acordes
Un Día En El Mundo
tablatura
Descubre más canciones de Vetusta Morla