Copenhague, Vetusta Morla (tablatura)

Autor: Anónimo | 32875 visualizaciones

Esta es una versión que he sacado escuchando la canción, e intentado
obtener el sonido mas similar posible. El tema de esta versión
es que hay que tocarla punteando ciertas partes y otras
rasgando cuerda... Pero el sonido que se obtiene es muy similar al de la
canción original.

Espero que os guste... Un saludo desde godella, Máximo

Punteo inicial:

E -----2-----2-----2-----2-----2-----2-----4-----4----
B --------2-----2-----2-----2-----3-----3-----3-----3-
G ----------------------------------------------------
D ----------------------------------------------------
A ----------------------------------------------------
E ----------------------------------------------------

E -5-----5-----5-----5-----7-----7-----5-----4--------
B ----5-----5-----5-----5-----5-----5-----5-----5-----
G ----------------------------------------------------
D ----------------------------------------------------
A ----------------------------------------------------
E ----------------------------------------------------   (x2)

Bajo de entrada:

                         (SIm)
E --------------------------
B --------------------------
G --------------------------
D --------------------------
A ---------------4--2--0----
E ---0--2--4--5-------------


Punteo con el MI7sus4

E ---------0--2--0------------0--2--0-----
B -----------------0-------------------0--
G ------2------------------2--------------
D ----0------------------0----------------
A --2------------------2------------------
E -----------------------------------------


Luego utilizo un La un poco extraño que en
realidad no se como se llama pero la posición
que le corresponde es la siguiente. Los llamare La1 y La2
Este acorde se toca rasgando cuerdas...

      LA1       LA2
E------------------------
B---2-------------1------
G---2-------------2------
D------------------------
A------------------------
E------------------------

Por ultimo está la parte de "Llueve en el canal..."
que en cuantos acordes es igual que la de
"ella duerme tras el vendaval..."
Los acordes son basicamente los siguiente, pero
he modificado algunos para que suene
Igual que el punteo inicial...
Aqui los La van con cejilla... suena mejor y es mas facil
tocar el siguiente acorde...
FA#m     RE      RE  (modificado)     LA     LAM(modificaDO)    LA    SOLM#


          RE  (modificado)    LAM(modificaDO)
E---------4----------------7-----------
B-------3------------------5-----------
G-----2--------------------6-----------
D--------------------------5-----------
A--------------------------7-----------
E--------------------------5-----------

Por facilitar la lectura ReM(modificado) será ReM2 y
LaM(modificado) sera LaM3



MI7sus4                                    LA1          LA2
     El corría, nunca le enseñaron a andar, se fue tras luces pálidas.
MI7sus4                                    LA1           LA2
     Ella huía de espejismos y horas de más.


MI7sus4                                      LA1          LA2
     Aeropuertos. Unos vienen, otros se van, igual que Alicia sin ciudad.
MI7sus4                                      LA1          LA2
   El valor para marcharse, el miedo a llegar.


FA#m       RE        REM2         LA          LAM3        LA        SOLM#
    Llueve en el canal, la corriente enseña el camino hacia el mar.
FA#m         RE        REM2
    Todos duermen ya.



   RE            LA          MI 
Dejarse llevar suena demasiado bien.
   RE            LA          MI           RE            LA 
Jugar al azar, nunca saber dónde puedes terminar...
MI           SIm       LA   MI 
    o empezar.



MI7sus4                                             LA1         LA2
     Un instante mientras los turistas se van. Un tren de madrugada
MI7sus4                                            LA1            LA2
     consiguió trazar la frontera entre siempre o jamás.

FA#m         RE        REM2        LA         LAM3      LA       SOLM#
    Llueve en el canal, la corriente enseña el camino hacia el mar.
FA#m         RE        REM2
    Todos duermen ya.



   RE            LA          MI 
Dejarse llevar suena demasiado bien.
   RE            LA          MI           RE           LA 
Jugar al azar, nunca saber dónde puedes terminar...
MI           SIm       LA   MI                 FA#m
    o empezar...                     o empezar



Rueda de acordes previa a cantar:
(FA#m    RE     REM2     LA      LAM3    LA      SOLM#)



FA#m                         RE   REM2
Ella duerme tras el vendaval.
         LA 
No se quitó la ropa.
 LAM3        LA        SOLM#
Sueña con despertar
FA#m                          RE   REM2
en otro tiempo y en otra ciudad.


  RE            LA          MI 
Dejarse llevar suena demasiado bien.
   RE            LA          MI           RE          LA 
Jugar al azar, nunca saber dónde puedes terminar...
MI           SIm       LA 
    o empezar..........terminar
MI           SIm       LA 
    o empezar..........terminar
MI           SIm       LA 
    o empezaaaaaaaaaa.........

Un saludo desde godella, Máximo

Si teneis dudas o correcciones: maxlls@hotmail.com
Calificar esta versión:
Aviso: Este fichero es trabajo propio de su transcriptor y representa su interpretación personal de la canción. El material contenido en esta página es para exclusivo uso privado, por lo que se prohibe su reproducción o retransmisión, así como su uso para fines comerciales.
Más versiones de Copenhague, Vetusta Morla
Copenhague
acordes
Copenhague (ver 2)
acordes
Copenhague
tablatura
Descubre más canciones de Vetusta Morla