Al Respirar, Vetusta Morla (tablatura)

Autor: Anónimo | 20213 visualizaciones

- RiFF 1 -
      Gm
  e||-----------------------------------------------||
  B||---3---3---3-----3-----3---3---3-----3---------||
  G||--3--2---0---0h2---2h3---2---0---0h2---2h3-----||
  D||--0--------------------------------------------||
  A||--0--------------------------------------------||
  E||--3--------------------------------------------||

       F
  e||----------------------------------0------------||
  B||----3---3---3-----3-----3---3---3---3----------||
  G||------2---0---0h2---2h3---2---0----------------||
  D||-----------------------------------------------||
  A||-----------------------------------------------||
  E||--1--------------------------------------------||


   - RiFF 2 -
      D#                    Cm
  e||-----------------------------------------------||
  B||----3---3---3-----3-------3---3---3-----3------||
  G||------2---0---0h2---2h3-----2---0---0h2---2h3--||
  D||--1--------------------------------------------||
  A||------------------------3----------------------||
  E||-----------------------------------------------||
      Gm
  e||-----------------------------------------------||
  B||----3---3---3-----3-----3---3---3-----3--------||
  G||------2---0---0h2---2h3---2---0---0h2---2h3----||
  D||-----------------------------------------------||
  A||-----------------------------------------------||
  E||--3--------------------------------------------||


Intro: RiFF 1

Verso 1: RiFF 1 - x2

 Te he dejado en el sillón
 las pinturas y una historia en blanco.
 No hay principio ni final,
 sólo lo que quieras ir contando.


Estribillo 1: RiFF 2

 Y al respirar intenta ser quien ponga el aire,
 que al inhalar te traiga el mundo de esta parte.


RiFF 1 -> x1


Verso 2: RiFF 1 -> x4

 Te he dejado en el sillón
 las pinturas y una historia en blanco.
 Yo me marcho a otro lugar,
 puede que el viaje sea largo.
 La burbuja en que crecí nos vendió comodidad
 y un nudo entre las manos.
 Yo escogí la ambigüedad, tú el fantasma y lo real,
 todo en el mismo barco. ***


Estribillo 2: RiFF 2 -> x2

 Y al respirar propongo ser quien ponga el aire,
 que al inhalar me traiga el mundo de esta parte.
 Y respirar tan fuerte que se rompa el aire,
 aunque esta vez si no respiro es por no ahogarme.
D#        Gm        D#              Gm        D#        Gm
 Intenta no respirar. Intenta no respirar ... Ahhhhh!!! Ahhh!!! ...
        D#        Cm                          Gm
 Y al respirar propongo ser quien ponga el aire,
 que al inhalar me traiga el mundo de esta parte.
      Ab      Cm                           Gm
 Y respirar tan fuerte que se rompa el aire,
Gm                 F                        D#
 aunque esta vez quizá será mejor marcharse.
Cm        Gm      F
 Intenta no respirar.
D#  Cm       Gm
 Intenta no respirar
Calificar esta versión:
Aviso: Este fichero es trabajo propio de su transcriptor y representa su interpretación personal de la canción. El material contenido en esta página es para exclusivo uso privado, por lo que se prohibe su reproducción o retransmisión, así como su uso para fines comerciales.
Más versiones de Al Respirar, Vetusta Morla
Al Respirar
acordes
Al Respirar
tablatura
Descubre más canciones de Vetusta Morla