Y Aún No Te Has Ido, Vanesa Martin (tablatura)

Autor: Anónimo | 43817 visualizaciones

____ acordes ____________
|                       |
| Gm:   355333          |
| Cm:   335543          |
| D7:   000212          |
| D:    000232          |
| A:    002220          |
| A2:   577655          |
| Dm:   000231          |
|_______________________|



[punteo base 1]:
    Gm                                Cm
E-||--------------------------6-6----|--------------------------6-6----|
B-||-8-----8-----8-6-8--8---8-----8-6|-8-----8-----8-6-8--8---8-----8-6|
G-||---------------------------------|---------------------------------|
D-||---------------------------------|---------------------------------|
A-||---------------------------------|---------------------------------|
E-||---------------------------------|---------------------------------|

    D7                                     Gm          D
E-||--------------------------------------|---------8s10-10s8-8s6-6s5-5|
B-||-10---10----10-8-10--10--10s11-11--8-6|8----8----------------------|
G-||--------------------------------------|----------------------------|
D-||--------------------------------------|----------------------------|
A-||--------------------------------------|----------------------------|
E-||--------------------------------------|----------------------------|

                          Gm
Aún no te has ido y ya te echo de menos
                       Cm
Cuento las horas para vernos de nuevo
                       D7
Guardo tu aroma para olerlo luego
                     Gm   D
¿Qué más quieres de mí?


[punteo base 1]:
                            Gm
Aún no te has ido y yo ya quiero que vuelvas
                       Cm
Sentir como poquito a poco te acercas
                     D7
Que si me caigo, tú me sostengas
                     Gm   D
¿Qué más se puede pedir?


                           Gm
Te das la vuelta y yo te clavo mis ojos
                          Cm
Me quedo quieta hasta perderte de vista
                      D7
Y lo peor no quiero enamorame,
               Gm
No puedo resistir


A


Dm    Gm
Y te vas,
      A2                       Dm    A A
No olvides, vida mía, que te prometí
    Dm                    Gm
llamarte, escribirte, pensarte, soñarte,
     A2                  Dm           A A
Pero antes de todo ya empiezo a extrañarte

Dm            Gm
Y te vas, contigo y sin ti
      A2                       Dm    A A
No olvides, vida mía, que te prometí
    Dm                    Gm
llamarte, escribirte, pensarte, soñarte,
     A2                  Dm           A A
Pero antes de todo ya empiezo a extrañarte


                         Gm
Tú eres el viento que empuja mi vela,
                     Cm
La tinta que define toda mi letra,
                       D7
La gota de agua que moja mis labios
                   Gm   D
Y que me quita la sed.


[punteo base 2]:
    Gm                                Cm
E-||---6-----------------------6-----|---6-----------------------6-----|
B-||--8---8-6-8---8-6-8--8-6-8---8-6-|--8---8-6-8---8-6-8--8-6-8---8-6-|
G-||-7-------------------------------|-7-------------------------------|
D-||---------------------------------|---------------------------------|
A-||---------------------------------|---------------------------------|
E-||---------------------------------|---------------------------------|

    D7                                Gm
E-||----9------------------------------|-------------------------------|
B-||--10--10-8-10--10-8-10--10-8-10s11-|-8s7s8-------------------------|
G-||-9---------------------------------|-------------------------------|
D-||-----------------------------------|-------------------------------|
A-||-----------------------------------|-------------------------------|
E-||-----------------------------------|-------------------------------|

                            Gm
Y es que sin verte yo ya empiezo a extrañarte,
                        Cm
Sin despedirte ya empiezo a desarmarme
                       D7
Aunque tardemos en volver a vernos
                         Gm
Dime hasta luego y no adiós


A


Dm    Gm
Y te vas,
      A2                       Dm    A A
No olvides, vida mía, que te prometí
    Dm                    Gm
llamarte, escribirte, pensarte, soñarte,
     A2                  Dm           A A
Pero antes de todo ya empiezo a extrañarte

Dm            Gm
Y te vas, contigo y sin ti
      A2                       Dm    A A
No olvides, vida mía, que te prometí
    Dm                    Gm
llamarte, escribirte, pensarte, soñarte,
     A2                  Dm           A A
Pero antes de todo ya empiezo a extrañarte


Dm            Gm
Y te vas, contigo y sin ti
      A2                       Dm    A A
No olvides, vida mía, que te prometí
    Dm                    Gm
llamarte, escribirte, pensarte, soñarte,
     A2                  Dm           A A
Pero antes de todo ya empiezo a extrañarte


                          Gm
Aún no te has ido y ya te echo de menos
                       Cm
Cuento las horas para vernos de nuevo
                       D7
Guardo tu aroma para olerlo luego ...
                     Gm
¿Qué más quieres de mí?




###------------------------------###
### Tablatura de: Enrique Moraño ###
### Sevilla [Spain]     ABR-2008 ###
###      emorano@hotmail.com     ###
###------------------------------###
Calificar esta versión:
Aviso: Este fichero es trabajo propio de su transcriptor y representa su interpretación personal de la canción. El material contenido en esta página es para exclusivo uso privado, por lo que se prohibe su reproducción o retransmisión, así como su uso para fines comerciales.
Más versiones de Y Aún No Te Has Ido, Vanesa Martin
Y Aún No Te Has Ido
acordes
Y Aún No Te Has Ido
tablatura
Descubre más canciones de Vanesa Martin