Jump, Van Halen (tablatura) (ver 2)

Autor: xxblackxpinkxx | 16935 visualizaciones



============================================================
                "Jump (Salta)"; por Van Halen.
============================================================
*Por Sebastián Ara.
*MSN: playing.the.angel_@hotmail.com
*Buenos Aires, Argentina.

Intro (arreglo de teclado/sintetizador):
e---10---12---8---8----10--10vvv--12---8---5vv--3--3vvvv-|
b---12---13---10--10---12--12vvv--13---10--6vv--5--3vvvv-|
g---12---12---10--10---12--12vvv--12---10--5vv--5--5vvvv-|
d--------------------------------------------------------|
a--------------------------------------------------------|
e--------------------------------------------------------|


Solo:
e-----18vvvvv\---6--------6----------6-------------------------------|
b----x----------x---9bvv----6--9p6--------------6--------------------|
g---x------------------------------9----9p8p6-8---6vvv/-------6---6--|
d--x---------------------------------------------------------x-------|
a-x---------------------------------------------------------x--------|
ex-------------------------------------------------------------------|
    
e----------------------------------------------h6h9-13p9p8p6h9h13p9p8|
b--------------------------------------------------------------------|
g---6b--6b-----------------------------------------------------------|
d------------8-----6br-8p6---6---------------------------------------|
a--------------8-----------8---8-7-6\4-6-4vvv------------------------|
e--------------------------------------------------------------------|
      
e-p6h9-13p9p8p6--------------------------------------------------------|
b--------------h9h13-6-------------------------------------------------|
g---------------------h9--13p6h10-----------------------------8b9r8rp6-|
d---------------------------------13p6h10------------------------------|
a-----------------------------------------13p6vv(6)b8vr6\-/8-----------|
e----------------------------------------------------------------------|
  
e--------------6--8--11-11h13v--9h11vvv/-----------------------------|
b-------------6------------------------------------------------------|
g-8vvvvv\----6-------------------------------------------------------|
d-----------8--------------------------------------15h16h18----------|
a-----------------------------------------15h16h18----------15h16h18-|
e--------------------------------------------------------------------|
   
e-----------------------------15h16p15vvvvvvvvvvv--|
b--------------------15h16h18----------------------|
g-----------15h16h18-------------------------------|
d--15h16h18----------------------------------------|
a--------------------------------------------------|
e--------------------------------------------------|





Calificar esta versión:
Aviso: Este fichero es trabajo propio de su transcriptor y representa su interpretación personal de la canción. El material contenido en esta página es para exclusivo uso privado, por lo que se prohibe su reproducción o retransmisión, así como su uso para fines comerciales.
Más versiones de Jump, Van Halen
Jump
tablatura
Jump (ver 2)
tablatura
Descubre más canciones de Van Halen