La Bamba, Valentin Elizalde (tablatura) (ver 2)

Autor: alex220696 | 26828 visualizaciones

1-----------------------------------------------------------
2-----------------------------------------------------------
3----------------3-0-------------------------2-0------------
4----------2-5-3---------------3-3-2---2-5-3----------------
5----0-2-3-----------------2-5-------2----------------------
6--3---------------------3----------------------------------



1--1-1-1-1-1-0---1-1-1-1-1-0---------------1-0---0-0------
2--------------1-------------1-1-1-1-3-0-3-----3----------
3---------------------------------------------------------
4---------------------------------------------------------
5--------------------------------------------------------- 
6---------------------------------------------------------


1--1-1-1-1-1---------------1-0-0-----------------0--------0-----
2------------0-1-1-1-3-0-3-------1------2---2----1-3-0----1-3-0-
3----------------------------------2-0----3---3-----------------
4---------------------------------------------------------------
5---------------------------------------------------------------
6---------------------------------------------------------------

Comentarios del colaborador: AHI SE LAS DEJO EN LA VERSION COMPLETA

Calificar esta versión:
Aviso: Este fichero es trabajo propio de su transcriptor y representa su interpretación personal de la canción. El material contenido en esta página es para exclusivo uso privado, por lo que se prohibe su reproducción o retransmisión, así como su uso para fines comerciales.
Más versiones de La Bamba, Valentin Elizalde
La Bamba
tablatura
La Bamba (ver 2)
tablatura
Descubre más canciones de Valentin Elizalde