Were Not Gonna Take It, Twisted Sister (tablatura) (ver 2)

Autor: rockeroloco36 | 14647 visualizaciones

1|0-0-2---2-4-2-4-4/5-5-5-4-2-4-2-0-2-4-0-0-0-7-7-7-7-7-7-7-
2|-0---0-0--------------------------------------------------
3|----------------------------------------------------------
4|----------------------------------------------------------
5|----------------------------------------------------------
6|----------------------------------------------------------

1|0-0-0-2--4-0-2-4-4/5-0-4-4-2-0-2-4-0-0-0------------------
2|---0---0--------------------------------------------------
3|----------------------------------------------------------
4|----------------------------------------------------------
5|----------------------------------------------------------
6|----------------------------------------------------------

Comentarios del colaborador: Ojala les sirva

Calificar esta versión:
Aviso: Este fichero es trabajo propio de su transcriptor y representa su interpretación personal de la canción. El material contenido en esta página es para exclusivo uso privado, por lo que se prohibe su reproducción o retransmisión, así como su uso para fines comerciales.
Más versiones de Were Not Gonna Take It, Twisted Sister
Were Not Gonna Take It
tablatura
Were Not Gonna Take It (ver 2)
tablatura
Descubre más canciones de Twisted Sister