Me Voy, Tush (acordes) (ver 2)

Autor: Nigel Brandon | 25323 visualizaciones

asosasos5cmdsosgsosgsos5


Tush ? Me voy

Verso:

   D#
Me voy de aquí
                  G#
ya no quiero molestarte
                       Cm
ya entendí que no soy nada para ti
                 G#
una media vuelta y se
                     D#
que habrá un camino nuevo para mí 
                      e|-10----11--
  Aquí un punteito  B|----11-----
                            G#
lo que se pierde es porque viene algo mejor
                    Cm
y a veces uno no entiende una razón
                   G#
y se miente a si mismo


Pre-coro:

      D#
Me canse de pretender que era esa persona,
     Cm
para ti me olvide de lo que era en verdad
      G#                      A#
solo puedo ser yo ... solo se que soy yo.


Coro:
              D#
Y por eso me voy
                    Cm
porque ya no siento nada
                     G#
ya se acabaron esas falsas ilusiones
            D#    G#5/A#5
que tenía para ti
   D#
Me voy
                       Cm
porque ya sé que no te quiero
                      G#
no me mereces por que se que como soy
                   D#    G#5/A#5
me merezco alguien mejor

Verso:
   D#
Me voy de aquí
                  G#
ya no quiero lastimarte
                      Cm
ya entendí que no fui nada para ti
               G#
media vuelta y sabre

*En esta parte que viene entra un punteo: 
solo he puesto las 4 primeras cuerdas chequeen 
bien toda la canción no se confundan no crean 
que es el bajo ya ha pasado antes

   D#      G#   Cm      G# 
e|------------------------------
B|-----6~-6/8~-8/11~------------
G|-/8~----------------8-8/10-8~-
D|------------------------------
                     D#
que habrá un camino nuevo para mí
                            G#
lo que se pierde es porque viene algo mejor
                    Cm
y a veces uno no entiende una razón
                 G#
y se miente a si mismo.

Pre-coro: en este parte hay otro punteo escuchen bien
    D#                 Cm
e|--------------------|----6/11~------------
B|----4/11~----8\6~\4-|--------------8\6~\4-
G|-6/8------6/8-------|-6/8------6/8--------
D|--------------------|---------------------
   G#                    A#
e|--------------------|-11-10----13~--
B|-----4/11-----6/11~-|------11------
G|-6/8------6/8-------|--------------
D|--------------------|---------------
      D#
Me canse de pretender que era esa persona,
     Cm
para ti me olvide de lo que era en verdad
      G#                   A#
solo puedo ser yo... solo se que me voy


Coro:
              D#
Y por eso me voy
                    Cm
porque ya no siento nada
                     G#
ya se acabaron esas falsas ilusiones
            D#    G#5/A#5
que tenía para ti
   D#
Me voy
                       Cm
porque ya sé que no te quiero
                      G#
no me mereces por que se que como soy
                   D#    
me merezco alguien mejor?
Solo:

   D#         Cm          G#           A#
e|-------------------4-3--6--4--3--4-3--6--4-3----
B|---6~---6-----6--4-----4--4--4--4----4--4----4~-
G|-8----8--8--8-----3-----------------------------
D|--8----8--8--8----------------------------------
A|------------------------------------------------
E|------------------------------------------------
   D#
Me voy de aquí                 
                G#
ya no quiero molestarte        
                      G#
ya entendí que no soy nada para ti
               D#     G#5/A#5
una media vuelta y se

Coro:

   D#
Me voy
                       Cm
porque ya sé que no te quiero
                      G#
no me mereces por que se que como soy
                   D#
me merezco alguien mejor?

Punteo final: 
    D#          Cm	 G#                A# 
e|--------------------------------------------------------
B|-/16-18^-18p16-18--18^-16h18p16-18^-18p16-18^18^18^18^~-
G|--------------------------------------------------------





Calificar esta versión:
Aviso: Este fichero es trabajo propio de su transcriptor y representa su interpretación personal de la canción. El material contenido en esta página es para exclusivo uso privado, por lo que se prohibe su reproducción o retransmisión, así como su uso para fines comerciales.
Más versiones de Me Voy, Tush
Me Voy
acordes
Me Voy (ver 2)
acordes
Descubre más canciones de Tush