No Se Llama Amor, Turf (tablatura)

Autor: Anónimo | 16989 visualizaciones

INTRO:
  Cm  A#  G  G    G

E|----------------------|
B|----------------------|
G|----------------------|   X4
D|----------------------|
A|-3--------------------|
E|-----6--3--6--3--5--6-|



  Cm        A#      G
   Te quiero dar amor,
   te quiero dar calor,
   te quiero dar mi honor
   pero no, no, no, no puedo porque...

   Cm     A#       G           Cm      A#    G
   viste lo que hiciste cuando rompiste este lugar

            Cm               A#           G                        C         A#    G
   de las personas que ahi estaban no hay ninguna que se olvide jamas de vos.



  Cm  A#  G  G    G

E|----------------------|
B|----------------------|
G|----------------------|   X4
D|----------------------|
A|-3--------------------|
E|-----6--3--6--3--5--6-|







   MISMO RIFF
   Te quiero dar cariño,
   te quiero dar un niño
   te quiero dar pero no se explicar lo que te tengo para dar
   porque viste lo que hiciste cuando mentiste una vez mas
   de las personas que ahi estaban
   no hay ninguna que te crea jamas a vos (jamas a vos)




Cm                       G
Me das la vuelta al mundo en solo dos segundos
G#                G
atormentado mentalmente estoy
Cm                   G
pasar la noche entera era la ley primera
G#                  G
me desespera con pensar, que...


MIENTRAS, RAPIDO, 12 REPETICIONES POR NOTA
E|----------------------------------||
B|-13--15--16-----------------------||
G|----------------------------------||
D|----------------------------------||
A|----------------------------------||
E|----------------------------------||

ESTRIBILLO:

          Fm                           Cm                      G                  Cm  C
Para saber lo que es amar hay que perder la libertad y para mi eso no se llama amor
          Fm                           Cm                      G                   RIFF
Para saber lo que es amar hay que perder la libertad y para mi eso no se llama amor



PUNTEO:

E|---------------------------------------------------||
B|----8------8------------13------13-----------------||
G|---10b(12)----(X10)-----15b(17)------(X10)---------||
D|---------------------------------------------------||
A|---------------------------------------------------||
E|---------------------------------------------------||

BASE> G A# G


VERSO:
BAJO:


E|--------|--|
B|--------|--|
G|--------|--|
D|--------|x3|
A|-3------|--|
E|---6-3~-|--|

Te quiero dar amor,
te quiero dar calor,
te quiero dar mi honor
     C   A#  G   F#  F
pero no  no  no  no  no


viste lo que hiciste cuando rompiste este lugar
de las personas que ahi estaban
no hay ninguna que se olvide jamas de vos (jamas de vos)


Cm                       G
Me das la vuelta al mundo y en solo dos segundos
G#                G
atormentado mentalmente estoy
Cm                   G
pasar la noche entera era la ley primera
G#                  G
me desespera con pensar, que...


MIENTRAS, RAPIDO, 12 REPETICIONES POR NOTA
E|----------------------------------||
B|-13--15--16-----------------------||
G|----------------------------------||
D|----------------------------------||
A|----------------------------------||
E|----------------------------------||

ESTRIBILLO:

          Fm                           Cm                      G                  Cm  C
Para saber lo que es amar hay que perder la libertad y para mi eso no se llama amor
          Fm                           Cm                      G                  Cm  C
Para saber lo que es amar hay que perder la libertad y para mi eso no se llama amor




lalalaralalalalaralalalaralaaa
lalalaralalalalaralalalaralaaa

BAJO:

G|------------------------------------------------------------||
D|------------------------------------------------------------||
A|----------------3---3---3---3--1---1---1---1----------------||
E|-1---1---1---1--------------------------------3---3---3---3-||


lalalaralalalalaralalalaralaaa
lalalaralalalalaralaRalaralaaa


SOLO DE TROMPETA:

  Fm--Cm--Cm-B#m-Bbm--G x2

ESTRIBILLO:

          Fm                           Cm                      G                  Cm  C
Para saber lo que es amar hay que perder la libertad y para mi eso no se llama amor
          Fm                           Cm                      G                  Cm  C
Para saber lo que es amar hay que perder la libertad y para mi eso no se llama amor

         G-Cm-G-Cm-G-Cm-G-Cm
no se llama amor, no se llama amor, no se llama amor.
TRES NOTAS FINALES: Cm  Cm  Cm

Le quiero agradecer a Lea por ser un idolo y abrirme un poco mas la cabeza!!!
idolooooo!!!!!!!
Calificar esta versión:
Aviso: Este fichero es trabajo propio de su transcriptor y representa su interpretación personal de la canción. El material contenido en esta página es para exclusivo uso privado, por lo que se prohibe su reproducción o retransmisión, así como su uso para fines comerciales.
Más versiones de No Se Llama Amor, Turf
No Se Llama Amor
acordes
No Se Llama Amor
tablatura
Descubre más canciones de Turf