Loco Un Poco, Turf (tablatura)

Autor: Juan010694 | 32438 visualizaciones

1.-3--0-0-----0-0---3--0-0----0-0
2.--------3-3--------------3-3---
3.-------------------------------
4.-------------------------------
5.-------------------------------
6.-------------------------------

1.-3--1-1--0-0----0---1-0-------3-0-0---3-0-0--}BIS
2.-------------2-3--------3-1-3-------3-------3}
3.---------------------------------------------
4.---------------------------------------------
5.---------------------------------------------
6.---------------------------------------------

1.-3-1-1-0-0------0----1-0-------1-1-1-0-1-1-3-
2.-----------2--3----------3-1-3---------------
3.---------------------------------------------
4.---------------------------------------------
5.---------------------------------------------
6.---------------------------------------------

espero q les guste 
un abrazo a todos
Calificar esta versión:
Aviso: Este fichero es trabajo propio de su transcriptor y representa su interpretación personal de la canción. El material contenido en esta página es para exclusivo uso privado, por lo que se prohibe su reproducción o retransmisión, así como su uso para fines comerciales.
Más versiones de Loco Un Poco, Turf
Loco Un Poco
acordes
Loco Un Poco
tablatura
Loco Un Poco
bajo
Descubre más canciones de Turf