Kaguasaki, Tronic (tablatura)

Autor: cirolonga | 39270 visualizaciones



 TRONIC
KAGUASAKI

No importa el momento
        
    |-------|
    |-------|
    |---4---|
    |---4---|
    |---2---|
    |-------|

No importa el lugar

    |-------|
    |-------|
    |-------|
    |---5---|
    |---5---|
    |---3---|

Kaguasaki in the mor

    |-------|
    |-------|
    |---7---|
    |---7---|
    |---5---|
    |-------|

Kaguasaki in the tar

    |-------|
    |-------|
    |---9---|
    |---9---|
    |---7---|
    |-------|

Siempre en las mañanas me acompaña...

|-----------------------------|
|-----------------------------|
|4-4-----7-7-7-7-9-9-9-9-9-9-9|
|4-4-5-5-7-7-7-7-9-9-9-9-9-9-9|
|2-2-5-5-5-5-5-5-7-7-7-7-7-7-7|
|----3-3----------------------|

coro:
Kaguasaki in the moooooooooooor

|-------------------------------|
|-------------------------------|
|4-4-4-4---------7-7-7-7-9-9-9-9|
|4-4-4-4-5-5-5-5-7-7-7-7-9-9-9-9|
|2-2-2-2-5-5-5-5-5-5-5-5-7-7-7-7|
|--------3-3-3-3----------------|

Kaguasaki in the taaaaaaaaaaaar

|-------------------------------|
|-------------------------------|
|4-4-4-4---------7-7-7-7-6-6-6-6|
|4-4-4-4-5-5-5-5-7-7-7-7-6-6-6-6|
|2-2-2-2-5-5-5-5-5-5-5-5-4-4-4-4|
|--------3-3-3-3----------------|

Kaguasaki in the mor,in the tar,in the night

|-------------------------------|
|-------------------------------|
|4-4-4-4---------7-7-7-7-9-9-9-9|
|4-4-4-4-5-5-5-5-7-7-7-7-9-9-9-9|
|2-2-2-2-5-5-5-5-5-5-5-5-7-7-7-7|
|--------3-3-3-3----------------|

y a la concha de tu hermana ke nos vamos a culiar

|-------------------------------|
|-------------------------------|
|4-4-4-4---------7-7-7-7-6-6-6-6|
|4-4-4-4-5-5-5-5-7-7-7-7-6-6-6-6|
|2-2-2-2-5-5-5-5-5-5-5-5-4-4-4-4|
|--------3-3-3-3----------------|

La meison nos ataca no nos...

|-------------------|
|-------------------|
|---4-------7---9---|
|---4---5---7---9---|
|---2---5---5---7---|
|-------3-----------|

Ke les pasa a estos culiaos...
|-----------|
|-----------|
|---4-------|
|---4---5---|
|---2---5---|
|-------3---|

23 veces al dia en tu cara cagare

|---------------------|
|---------------------|
|7-7-7-7-9-9-9-9-9-9-9|
|7-7-7-7-9-9-9-9-9-9-9|
|5-5-5-5-7-7-7-7-7-7-7|
|---------------------|

coro:
Kaguasaki in the mooooooooooor

|-------------------------------|
|-------------------------------|
|4-4-4-4---------7-7-7-7-9-9-9-9|
|4-4-4-4-5-5-5-5-7-7-7-7-9-9-9-9|
|2-2-2-2-5-5-5-5-5-5-5-5-7-7-7-7|
|--------3-3-3-3----------------|

Kaguasaki in the taaaaaaaaaaar 

|-------------------------------|
|-------------------------------|
|4-4-4-4---------7-7-7-7-6-6-6-6|
|4-4-4-4-5-5-5-5-7-7-7-7-6-6-6-6|
|2-2-2-2-5-5-5-5-5-5-5-5-4-4-4-4|
|--------3-3-3-3----------------|

Kaguasaki in the mor,in the tar,in the night

|-------------------------------|
|-------------------------------|
|4-4-4-4---------7-7-7-7-9-9-9-9|
|4-4-4-4-5-5-5-5-7-7-7-7-9-9-9-9|
|2-2-2-2-5-5-5-5-5-5-5-5-7-7-7-7|
|--------3-3-3-3----------------|

y a la concha de tu hermana ke nos vamos a culiar

|-------------------------------|
|-------------------------------|
|4-4-4-4---------7-7-7-7-6-6-6-6|
|4-4-4-4-5-5-5-5-7-7-7-7-6-6-6-6|
|2-2-2-2-5-5-5-5-5-5-5-5-4-4-4-4|
|--------3-3-3-3----------------|

(Despues del coro):

|-------------------------|
|-------------------------|
|4-4-4-4---------7-7-7-7-9|
|4-4-4-4-5-5-5-5-7-7-7-7-9|:Tripiu!!
|2-2-2-2-5-5-5-5-5-5-5-5-7|
|--------3-3-3-3----------|

|-------------------------|
|-------------------------|
|4-4-4-4---------7-7-7-7-6|
|4-4-4-4-5-5-5-5-7-7-7-7-6|:Salvi!!
|2-2-2-2-5-5-5-5-5-5-5-5-4|
|--------3-3-3-3----------|

|-------------------------|
|-------------------------|
|4-4-4-4---------7-7-7-7-9|
|4-4-4-4-5-5-5-5-7-7-7-7-9|:Chanchiu!!
|2-2-2-2-5-5-5-5-5-5-5-5-7|
|--------3-3-3-3----------|

|-------------------------|
|-------------------------|
|4-4-4-4---------7-7-7-7-6|
|4-4-4-4-5-5-5-5-7-7-7-7-6|:Vision!!
|2-2-2-2-5-5-5-5-5-5-5-5-4|
|--------3-3-3-3----------|

|-----|
|-----|
|--4--|
|--4--|
|--2--|
|-----|





Comentarios del colaborador: Esta tab de "TRONIC" es muy facil de sacar

Calificar esta versión:
Aviso: Este fichero es trabajo propio de su transcriptor y representa su interpretación personal de la canción. El material contenido en esta página es para exclusivo uso privado, por lo que se prohibe su reproducción o retransmisión, así como su uso para fines comerciales.
Más versiones de Kaguasaki, Tronic
Kaguasaki
acordes
Kaguasaki
tablatura
Descubre más canciones de Tronic