Idiotas, Tronic (tablatura)

Autor: Anónimo | 36664 visualizaciones



Inkreible kancion de Tronic!!...espero que les guste...
cualquier duda o comentario, a mi mail ([email protected])


Intro: LA

A)
LA5                FA#5
Que dificil es aceptar a personas
        DO#5        MI5
que no aportan y solo odian

LA5                          FA#5
Siempre quejandose de que el país
                   DO#5              MI5
no está al nivel de ellos, son extranjeros

B)
LA5     SOL#5       FA#5
   Esos que odian a Bush
     DO#5        RE5                         MI5
Y por eso rompen todo lo que hay en nuestras calles
   RE5    DO#5
No son chilenos

Coro:
LA5                         FA#5
Vallanse que aquí no se necesitan idiotas
     RE5                            MI5
Que piensan que romper la ciudad es como defender al país

A)
LA5                FA#5
Que dificil es aceptar a la gente
       DO#5           MI5
que predican y no practican

LA5                     FA#5
Se que no les gusta trabajar
                    DO#5             MI5
y por eso escriben mierda robate la cuenta

B)
LA5      SOL#5      FA#5           DO#5
   Cómo puedes criticar en cinco minutos un
   RE5                     MI5
trabajo que se ha demorado meses
    RE5    DO#5
No eres profesional

Coro:
LA5                         FA#5
Vallanse que aquí no se necesitan idiotas
RE5                          MI5
hablan mal de nuestro país y sin embargo viven aquí
LA5                        FA#5                RE5
Prefieren siempre lo extranjero y no lo nacional
                    MI5
Amigo tu estás mal así no vamos a progresar

Solo:

1)----------------------------------------------------||
2)----------------------------------------------------||
3)-11-13-14-------------------------------------------||
4)-------------14-12p11-14-12p11-14-12p11-------------||
5)----------------------------------------------------||
6)----------------------------------------------------||

1)------------------------------------------------------------------------------||
2)------------------------------------------------------------------------------||
3)------------------------------------------------------11-13-14-----16-13------||
4)-11-11-11-12-14----11-11-11-11-11-12-14------------------------14-------------||
5)----------------12-------------------------11---------------------------------||
6)------------------------------------------------------------------------------||

1)-------------------------------------------------------------------||
2)-------------------------------------------------------------------||
3)-14-13---16-14-13----13-14-13----16-14-13----13-14p13----16p13-----||
4)-------14---------14----------14----------14----------14--------14-||
5)-------------------------------------------------------------------||
6)-------------------------------------------------------------------||

1)-----------------------------------------------------||
2)-----------------------------------------------------||
3)-14p13----16p13---16p13----14p13----16p13----14(x16)-||
4)-------14---------------14--------14------14---------||
5)-----------------------------------------------------||
6)-----------------------------------------------------||


B)
LA5      SOL#5           FA#5         DO#5
   Cómo puede ser que el sello gane más
         RE5                         MI5
que el artista que ha creado las canciones
   RE5     DO#5
Ya no más de eso

Coro:
LA5                         FA#5
Vallanse que aquí no se necesitan idiotas
    RE5                MI5
Si piensan en ..... y no entienden lo musical
LA5                         FA#5
Vallanse que aquí no se necesitan primates
 RE5                            MI5
Que piensan que romper la ciudad es como defender al país
LA5                        FA#5                RE5
Prefieren siempre lo extranjero y no lo nacional
                   MI5                   RE5 DO#5 SI5 LA5
Amigo tu estás mal así no vamos a progresaaaaaaaaaaaaaaaaar

***FIN***

Creo que hay algunos errores por ahi...
el solo esta bien...eso es todo
CHAOO





Calificar esta versión:
Aviso: Este fichero es trabajo propio de su transcriptor y representa su interpretación personal de la canción. El material contenido en esta página es para exclusivo uso privado, por lo que se prohibe su reproducción o retransmisión, así como su uso para fines comerciales.
Más versiones de Idiotas, Tronic
Idiotas
acordes
Idiotas
tablatura
Descubre más canciones de Tronic