Hoy, Tronic (tablatura)

Autor: Anónimo | 16032 visualizaciones



---------------------------------------------------
                  HOY
---------------------------------------------------

intro
|--------------------------------------------------|
|--------------------------------------------------|
|--7--5-5----------10--5-5-------------------------|
|----------7-5-5--------------9-7------------------|
|--------------------------------------------------|
|--------------------------------------------------|

|--------------------------------------------------|
|-7--5-5----------------------5-4------------------|
|---------7-5-5--5h5-5h5---------5-----------------|
|--------------------------------------------------|
|--------------------------------------------------|
|--------------------------------------------------|

versos(x2)

|---------------------------------------------------|
|---------------------------------------------------|
|------5---7----------------------------------------|
|--5---5---7----------------------------------------|
|--5---3---5----------------------------------------|
|--3------------------------------------------------|

pre-coro
|----------------------------------------------------|
|-------------(x2)-----------------------------------|
|--9--5--7-------------------------------------------|
|--9--5--7-------------------------------------------|
|--7--3--5-------------------------------------------|
|----------------------------------------------------|

coro
|------------------------------------------------|
|------------------------------------------------|
|-------5---7--(x2)-----------9---5---7----------|
|---5---5---7-----------------9---5---7----------|
|---5---3---5-----------------7---3---5----------|
|---3--------------------------------------------|




termina con(final)
|-------------------------------------------------|
|-------------------------------------------------|
|-------------------------------------------------|
|----3~-------------------------------------------|
|----3~-------------------------------------------|
|----5~-------------------------------------------|

~=dejar sonar

orden:
intro
verso x2
intro
verso x2
pre-coro
coro
intro
solo de bajo
pre-coro
coro x2
final

esta cancion la saque pa todos los que no cachan
na de acordes ni menos sus claves como RODOLFO,WENO
YA APRENDERA.saludos pa mi jaldin.





Calificar esta versión:
Aviso: Este fichero es trabajo propio de su transcriptor y representa su interpretación personal de la canción. El material contenido en esta página es para exclusivo uso privado, por lo que se prohibe su reproducción o retransmisión, así como su uso para fines comerciales.
Más versiones de Hoy, Tronic
Hoy
acordes
Hoy
tablatura
Hoy
bajo
Descubre más canciones de Tronic