Fenix, Tronic (tablatura)

Autor: cirolonga | 30438 visualizaciones



.INTRO:
|---------------------------------|
|---------------------------------|
|---5-10-8--------5-10-8-----10-7-|
|-6-X--X-X(x8)-6--X--X-X(x6)--X-7-|
|-X-3--8-6-----X--3--8-6------8-5-|
|-6------------6------------------|


.VERSO A:
  D5      D#5
|-----| |-----|
|-----| |-----|
|--7--| |--8--|
|--X--| |--X--|
|--5--| |--6--|
|-----| |-----|
D5
Son las seis
             D#5
no sale el sol
                           D5
el gallo no kanta la kancion
              D#5
y todo es extraño

y el dia no empieza.


.INTERMEDIO:
|-------------------|
|-------------------|
|---5-10-8-----10-7-|
|-6-X--X-X(x6)--X-X-|
|-X-3--8-6------8-5-|
|-6-----------------|


.VERSO B:
  D5      D#5     C5
|-----| |-----| |-----|
|-----| |-----| |-----|
|--7--| |--8--| |--5--|
|--X--| |--X--| |--5--|
|--5--| |--6--| |--3--|
|-----| |-----| |-----|
D5                 D#5
Sera ke dios olvido
                       D5
trabajar en el dia de hoy
                  D#5
todo esta obskuro,
                   C5
la noche es eterna.


.KORO:
  G5      D5     C5       A#5
|-----| |-----| |-----| |-----|
|-----| |-----| |-----| |-----|
|-----| |--7--| |--5--| |-----|
|--5--| |--7--| |--5--| |--8--|
|--5--| |--5--| |--3--| |--8--|
|--3--| |-----| |-----| |--6--|
                     G5
Si estoy alejado de ti
                     D5
no es ke te kiera dejar
                        C5
el mundo se nos pone dificil
                         A#5
problemas ke nos hacen kaer.
                       G5
Obligan a ponernos de pie
                        D5
y es una lekcion de la vida
                  C5
pararte hace renacer
                 A#5
pararte hace renacer.


1.REPITE INTRO:
|--------------------------------|
|--------------------------------|
|---5-10-8-------5-10-8-----10-7-|
|-6-X--X-X(x8)-6-X--X-X(x6)--X-7-|
|-X-3--8-6-----X-3--8-6------8-5-|
|-6------------6-----------------|


.REPITE VERSO A:
En este verso va kon PALM MUTE (pm),
ustedes le dan los tiempos (ESKUXENLA BIEN)
  D5      D#5
|-----| |-----|
|-----| |-----|
|--7--| |--8--|
|--X--| |--X--|
|--5--| |--6--|
|-----| |-----|
D5pm.              D#5pm.
Se akabo la oskuridad
          D#5pm.      D5pm.
y el mal sueño ya paso
          D5     D#5
nunka lo malo

dura para siempre.


.REPITE VERSO B:
Aki ay una pekeña variacion.
  D5      D#5     A5      A#5     C5
|-----| |-----| |-----| |-----| |-----|
|-----| |-----| |-----| |-----| |-----|
|--7--| |--8--| |-----| |-----| |--5--|
|--X--| |--X--| |--7--| |--8--| |--5--|
|--5--| |--6--| |--X--| |--X--| |--3--|
|-----| |-----| |--5--| |--6--| |-----|
A5                    A#5
Entonces dios no olvido
                       A5
trabajar en el dia de hoy
                A#5
siento alegria
                 C5
el sol nos anima.


.REPITE KORO:
  G5      D5     C5       A#5
|-----| |-----| |-----| |-----|
|-----| |-----| |-----| |-----|
|-----| |--7--| |--5--| |-----|
|--5--| |--7--| |--5--| |--8--|
|--5--| |--5--| |--3--| |--8--|
|--3--| |-----| |-----| |--6--|
                     G5
Si estoy alejado de ti
                     D5
no es ke te kiera dejar
                        C5
el mundo se nos pone dificil
                         A#5
problemas ke nos hacen kaer.
                       G5
Obligan a ponernos de pie
                        D5
y es una lekcion de la vida
                 C5
pararte hace renacer
                 A#5*
pararte hace renacer.

*Keda markando ai hasta ke entra
al INTERMEDIO...


INTERMEDIO:
|-----------------------|
|-----------------------|
|-12-10-14--8-----7-----|
|--X--X--X--X(x8)-X(x8)-|
|-10--8-12--6-----5-----|
|-----------------------|

|-------------------------------------|
|-------------------------------------|
|-12-10-14--5-----7-----8-----10------|
|--X--X--X--5(x8)-7(x8)-8(x8)--8(x10)-|
|-10--8-12--3-----5-----6------8------|
|-------------------------------------|


5.REPITE KORO:
  G5      D5     C5       A#5
|-----| |-----| |-----| |-----|
|-----| |-----| |-----| |-----|
|-----| |--7--| |--5--| |-----|
|--5--| |--7--| |--5--| |--8--|
|--5--| |--5--| |--3--| |--8--|
|--3--| |-----| |-----| |--6--|
                     G5
Si estoy alejado de ti
                     D5
no es ke te kiera dejar
                        C5
el mundo se nos pone dificil
                         A#5
problemas ke nos hacen kaer.
                       G5
Obligan a ponernos de pie
                        D5
y es una lekcion de la vida
                  C5
pararte hace renacer
                 A#5*
pararte hace renacer.


.FINAL:
|--------------------------------|
|--------------------------------|
|---5-10-8-------5-10-8-----10-7-|
|-6-X--X-X(x8)-6-X--X-X(x6)--X-7-|
|-X-3--8-6-----X-3--8-6------8-5-|
|-6------------6-----------------|

|----------|
|----------|
|---5-10---|
|-6-X--X-5-|
|-X-3--8-5-|
|-6------3-|





Calificar esta versión:
Aviso: Este fichero es trabajo propio de su transcriptor y representa su interpretación personal de la canción. El material contenido en esta página es para exclusivo uso privado, por lo que se prohibe su reproducción o retransmisión, así como su uso para fines comerciales.
Más versiones de Fenix, Tronic
Fenix
acordes
Fenix
tablatura
Fenix
bajo
Descubre más canciones de Tronic