El Puñal, Tronic (acordes)

Autor: Stiflre | 46217 visualizaciones

dofalamiresolsol9si


 intro:

e|--------------------------------|------------------------------|
b|--------------------------------|------------------------------|
g|----------12-------------12-----|---------11------------11-----|
d|----12-------12----12-------12--|----12------12----12------12--|
a|-10----10-------10----10--------|--9----9--------9----9--------|
e|--------------------------------|------------------------------|

e|--------------------------------|---------------------------------|
b|--------------------------------|---------------------------------|
g|----------12-------------12-----|---------11----------------------|
d|----12-------12----12-------12--|----12------12----12-12-12-12-12-|
a|-10----10-------10----10--------|--9----9--------9----------------|
e|--------------------------------|---------------------------------|

 Sol           Si 
a] Se ven bien y por dentro
   Do            Re
están mas ke podridos
 Sol          Si 
no saben lo ke es tener
   Do            Re
un verdadero amigo

       Re                  La 
b]no se si se dan cuenta
          Do                 Re
esclavos son de su avaricia


a]se sienten con poder
y abusan de los pobres
obligan a sus hijos
a hacer lo ke no kieren

b]y no se imaginan
ke su mujer está con otro

   Mi            Do         Sol       Sol9
c] se preguntan por ké no pueden dormir
 Mi            Do         Sol       Si 
si tratan al obrero como a un animal
 Mi            Do
presumen de sus autos caros
 Sol           Si 
se creen super stars
 Mi          Do        Re
son los ambiciosos de nuestro país

Sol - Si - Do - Re

a]soledad y traición
tendrán por codiciosos

   Re            La 
b]y no se dan cuenta
  Do             Re
esclavos son de su avaricia
   La                Do
y no se imaginan
         Re
ke su mujer está con otro

   Mi            Do         Sol       Sol9
c]se preguntan por ké no pueden dormir
 Mi            Do         Sol       Si 
si tratan al obrero como a un animal
 Mi            Do
presumen de sus autos caros
 Sol           Si 
se creen super stars
   Mi          Do        Re
son los ambiciosos de nuestro país
  Sol           Do          Re
se preguntan por ké no pueden dormir
  Sol            Do          Re   Mi-Fa
si tratan al obrero como a un animal
  Sol              Do
andan en sus autos caros
  Sol              Si
se creen super stars
  Mi            Do           Re
son los ambiciosos de nuestro país

FINAL: Sol Do Re
       Sol Do Re
       Sol Do Re Sol 

e|--------------------------------|------------------------------|
b|--------------------------------|------------------------------|
g|----------12-------------12-----|---------11------------11-----|
d|----12-------12----12-------12--|----12------12----12------12--|
a|-10----10-------10----10--------|--9----9--------9----9--------|
e|--------------------------------|------------------------------|

e|--------------------------------|---------------------------------|
b|--------------------------------|---------------------------------|
g|----------12-------------12-----|---------11----------------------|
d|----12-------12----12-------12--|----12------12----12-12-12-12-12-|
a|-10----10-------10----10--------|--9----9--------9----------------|
e|--------------------------------|---------------------------------|


SOL9

E-0
B-0
G-0
D-4
A-5
E-2
 
 





Calificar esta versión:
Aviso: Este fichero es trabajo propio de su transcriptor y representa su interpretación personal de la canción. El material contenido en esta página es para exclusivo uso privado, por lo que se prohibe su reproducción o retransmisión, así como su uso para fines comerciales.
Más versiones de El Puñal, Tronic
El Puñal
acordes
El Puñal
bajo
Descubre más canciones de Tronic